  0
SECTION
  2
HEADER
  9
$ACADVER
  1
AC1006
  9
$AXISMODE
 70
     0
  9
$AXISUNIT
 10
0.0625
 20
0.0625
  9
$CECOLOR
 62
0
  9
$CELTYPE
  6
CONTINUOUS
  9
$CLAYER
  8
LAYER1
  9
$EXTMIN
 10
0
 20
0
  9
$EXTMAX
 10
14.2812
 20
10.8173
  9
$LIMMIN
 10
0
 20
0
  9
$LIMMAX
 10
14.2812
 20
10.8173
  9
$GRIDMODE
 70
     0
  9
$GRIDUNIT
 10
0.125
 20
0.125
  9
$MIRRTEXT
 70
     1
  9
$SNAPMODE
 70
     1
  9
$SNAPUNIT
 10
0.125
 20
0
  9
$SNAPSTYLE
 70
     0
  9
$SPLINESEGS
 70
     8
  9
$SPLINETYPE
 70
     6
  0
ENDSEC
  0
SECTION
  2
TABLES
  0TABLE  2VPORT 70     2  0VPORT  2*ACTIVE 70     0 100.0 200.0 111.0 211.0 1213.01087 224.5 130.0 230.0 141.0 241.0 150.0 250.0 160.0 260.0 361.0 170.0 270.0 370.0 409.0 412.891304 4250.0 430.0 440.0 500.0 510.0 71     0 72   100 73     1 74     1 75     0 76     0 77     0 78     0  0ENDTAB
  0
TABLE
  2
LTYPE
 70
     1
  0
LTYPE
  2
CONTINUOUS
 70
    64
  3
Descriptive Text
 72
    65
 73
     0
 40
0
  0
ENDTAB
  0
TABLE
  2
LAYER
 70
     1
  0
LAYER
  2
LAYER1
 70
     0
 62
     7
  6
CONTINUOUS
  0
ENDTAB
  0TABLE  2STYLE 70     1  0STYLE  2STANDARD 70     0 400.0 411.0 500.0 71     0 420.2  3txt  4  0ENDTAB
  0
TABLE
  2
VIEW
 70
     0
  0
ENDTAB
  0
TABLE
  2
UCS
 70
     0
  0
ENDTAB
  0
TABLE
  2
DWGMGR
 70
     0
  0
ENDTAB
  0
ENDSEC
  0
SECTION
  2
BLOCKS
  0
BLOCK
  8
LAYER1
  2
Group1
 70
     0
 10
0
 20
0
 30
0
  0
LINE
  8
LAYER1
  6
CONTINUOUS
 62
     7
 10
0.4306
 20
8.845
 30
0
 11
0.4306
 21
8.7617
 31
0
  0
LINE
  8
LAYER1
  6
CONTINUOUS
 62
     7
 10
5.6944
 20
8.7617
 30
0
 11
5.6111
 21
8.845
 31
0
  0
LINE
  8
LAYER1
  6
CONTINUOUS
 62
     7
 10
5.5694
 20
8.7617
 30
0
 11
5.4861
 21
8.845
 31
0
  0
LINE
  8
LAYER1
  6
CONTINUOUS
 62
     7
 10
5.4306
 20
8.7617
 30
0
 11
5.3472
 21
8.845
 31
0
  0
LINE
  8
LAYER1
  6
CONTINUOUS
 62
     7
 10
5.2917
 20
8.7617
 30
0
 11
5.2083
 21
8.845
 31
0
  0
LINE
  8
LAYER1
  6
CONTINUOUS
 62
     7
 10
5.1667
 20
8.7617
 30
0
 11
5.0833
 21
8.845
 31
0
  0
LINE
  8
LAYER1
  6
CONTINUOUS
 62
     7
 10
5.0278
 20
8.7617
 30
0
 11
4.9444
 21
8.845
 31
0
  0
LINE
  8
LAYER1
  6
CONTINUOUS
 62
     7
 10
4.9028
 20
8.7617
 30
0
 11
4.8194
 21
8.845
 31
0
  0
LINE
  8
LAYER1
  6
CONTINUOUS
 62
     7
 10
4.7639
 20
8.7617
 30
0
 11
4.6806
 21
8.845
 31
0
  0
LINE
  8
LAYER1
  6
CONTINUOUS
 62
     7
 10
4.6389
 20
8.7617
 30
0
 11
4.5556
 21
8.845
 31
0
  0
LINE
  8
LAYER1
  6
CONTINUOUS
 62
     7
 10
4.5
 20
8.7617
 30
0
 11
4.4167
 21
8.845
 31
0
  0
LINE
  8
LAYER1
  6
CONTINUOUS
 62
     7
 10
4.3611
 20
8.7617
 30
0
 11
4.2778
 21
8.845
 31
0
  0
LINE
  8
LAYER1
  6
CONTINUOUS
 62
     7
 10
4.2361
 20
8.7617
 30
0
 11
4.1528
 21
8.845
 31
0
  0
LINE
  8
LAYER1
  6
CONTINUOUS
 62
     7
 10
4.0972
 20
8.7617
 30
0
 11
4.0139
 21
8.845
 31
0
  0
LINE
  8
LAYER1
  6
CONTINUOUS
 62
     7
 10
3.9722
 20
8.7617
 30
0
 11
3.8889
 21
8.845
 31
0
  0
LINE
  8
LAYER1
  6
CONTINUOUS
 62
     7
 10
3.8333
 20
8.7617
 30
0
 11
3.75
 21
8.845
 31
0
  0
LINE
  8
LAYER1
  6
CONTINUOUS
 62
     7
 10
3.7083
 20
8.7617
 30
0
 11
3.625
 21
8.845
 31
0
  0
LINE
  8
LAYER1
  6
CONTINUOUS
 62
     7
 10
3.5694
 20
8.7617
 30
0
 11
3.4861
 21
8.845
 31
0
  0
LINE
  8
LAYER1
  6
CONTINUOUS
 62
     7
 10
3.4444
 20
8.7617
 30
0
 11
3.3611
 21
8.845
 31
0
  0
LINE
  8
LAYER1
  6
CONTINUOUS
 62
     7
 10
3.3056
 20
8.7617
 30
0
 11
3.2222
 21
8.845
 31
0
  0
LINE
  8
LAYER1
  6
CONTINUOUS
 62
     7
 10
3.1667
 20
8.7617
 30
0
 11
3.0833
 21
8.845
 31
0
  0
LINE
  8
LAYER1
  6
CONTINUOUS
 62
     7
 10
3.0417
 20
8.7617
 30
0
 11
2.9583
 21
8.845
 31
0
  0
LINE
  8
LAYER1
  6
CONTINUOUS
 62
     7
 10
2.9028
 20
8.7617
 30
0
 11
2.8194
 21
8.845
 31
0
  0
LINE
  8
LAYER1
  6
CONTINUOUS
 62
     7
 10
2.7778
 20
8.7617
 30
0
 11
2.6944
 21
8.845
 31
0
  0
LINE
  8
LAYER1
  6
CONTINUOUS
 62
     7
 10
2.6389
 20
8.7617
 30
0
 11
2.5556
 21
8.845
 31
0
  0
LINE
  8
LAYER1
  6
CONTINUOUS
 62
     7
 10
2.5139
 20
8.7617
 30
0
 11
2.4306
 21
8.845
 31
0
  0
LINE
  8
LAYER1
  6
CONTINUOUS
 62
     7
 10
2.375
 20
8.7617
 30
0
 11
2.2917
 21
8.845
 31
0
  0
LINE
  8
LAYER1
  6
CONTINUOUS
 62
     7
 10
2.25
 20
8.7617
 30
0
 11
2.1667
 21
8.845
 31
0
  0
LINE
  8
LAYER1
  6
CONTINUOUS
 62
     7
 10
2.1111
 20
8.7617
 30
0
 11
2.0278
 21
8.845
 31
0
  0
LINE
  8
LAYER1
  6
CONTINUOUS
 62
     7
 10
1.9722
 20
8.7617
 30
0
 11
1.8889
 21
8.845
 31
0
  0
LINE
  8
LAYER1
  6
CONTINUOUS
 62
     7
 10
1.8472
 20
8.7617
 30
0
 11
1.7639
 21
8.845
 31
0
  0
LINE
  8
LAYER1
  6
CONTINUOUS
 62
     7
 10
1.7083
 20
8.7617
 30
0
 11
1.625
 21
8.845
 31
0
  0
LINE
  8
LAYER1
  6
CONTINUOUS
 62
     7
 10
1.5833
 20
8.7617
 30
0
 11
1.5
 21
8.845
 31
0
  0
LINE
  8
LAYER1
  6
CONTINUOUS
 62
     7
 10
1.4444
 20
8.7617
 30
0
 11
1.3611
 21
8.845
 31
0
  0
LINE
  8
LAYER1
  6
CONTINUOUS
 62
     7
 10
1.3194
 20
8.7617
 30
0
 11
1.2361
 21
8.845
 31
0
  0
LINE
  8
LAYER1
  6
CONTINUOUS
 62
     7
 10
1.1806
 20
8.7617
 30
0
 11
1.0972
 21
8.845
 31
0
  0
LINE
  8
LAYER1
  6
CONTINUOUS
 62
     7
 10
1.0417
 20
8.7617
 30
0
 11
0.9583
 21
8.845
 31
0
  0
LINE
  8
LAYER1
  6
CONTINUOUS
 62
     7
 10
0.9167
 20
8.7617
 30
0
 11
0.8333
 21
8.845
 31
0
  0
LINE
  8
LAYER1
  6
CONTINUOUS
 62
     7
 10
0.7778
 20
8.7617
 30
0
 11
0.6944
 21
8.845
 31
0
  0
LINE
  8
LAYER1
  6
CONTINUOUS
 62
     7
 10
0.6528
 20
8.7617
 30
0
 11
0.5694
 21
8.845
 31
0
  0
LINE
  8
LAYER1
  6
CONTINUOUS
 62
     7
 10
0.5139
 20
8.7617
 30
0
 11
0.4306
 21
8.845
 31
0
  0
LINE
  8
LAYER1
  6
CONTINUOUS
 62
     7
 10
5.7361
 20
8.7617
 30
0
 11
5.6528
 21
8.845
 31
0
  0
LINE
  8
LAYER1
  6
CONTINUOUS
 62
     7
 10
5.6111
 20
8.7617
 30
0
 11
5.5278
 21
8.845
 31
0
  0
LINE
  8
LAYER1
  6
CONTINUOUS
 62
     7
 10
5.4722
 20
8.7617
 30
0
 11
5.3889
 21
8.845
 31
0
  0
LINE
  8
LAYER1
  6
CONTINUOUS
 62
     7
 10
5.3472
 20
8.7617
 30
0
 11
5.2639
 21
8.845
 31
0
  0
LINE
  8
LAYER1
  6
CONTINUOUS
 62
     7
 10
5.2083
 20
8.7617
 30
0
 11
5.125
 21
8.845
 31
0
  0
LINE
  8
LAYER1
  6
CONTINUOUS
 62
     7
 10
5.0694
 20
8.7617
 30
0
 11
4.9861
 21
8.845
 31
0
  0
LINE
  8
LAYER1
  6
CONTINUOUS
 62
     7
 10
4.9444
 20
8.7617
 30
0
 11
4.8611
 21
8.845
 31
0
  0
LINE
  8
LAYER1
  6
CONTINUOUS
 62
     7
 10
4.8056
 20
8.7617
 30
0
 11
4.7222
 21
8.845
 31
0
  0
LINE
  8
LAYER1
  6
CONTINUOUS
 62
     7
 10
4.6806
 20
8.7617
 30
0
 11
4.5972
 21
8.845
 31
0
  0
LINE
  8
LAYER1
  6
CONTINUOUS
 62
     7
 10
4.5417
 20
8.7617
 30
0
 11
4.4583
 21
8.845
 31
0
  0
LINE
  8
LAYER1
  6
CONTINUOUS
 62
     7
 10
4.4167
 20
8.7617
 30
0
 11
4.3333
 21
8.845
 31
0
  0
LINE
  8
LAYER1
  6
CONTINUOUS
 62
     7
 10
4.2778
 20
8.7617
 30
0
 11
4.1944
 21
8.845
 31
0
  0
LINE
  8
LAYER1
  6
CONTINUOUS
 62
     7
 10
4.1528
 20
8.7617
 30
0
 11
4.0694
 21
8.845
 31
0
  0
LINE
  8
LAYER1
  6
CONTINUOUS
 62
     7
 10
4.0139
 20
8.7617
 30
0
 11
3.9306
 21
8.845
 31
0
  0
LINE
  8
LAYER1
  6
CONTINUOUS
 62
     7
 10
3.875
 20
8.7617
 30
0
 11
3.7917
 21
8.845
 31
0
  0
LINE
  8
LAYER1
  6
CONTINUOUS
 62
     7
 10
3.75
 20
8.7617
 30
0
 11
3.6667
 21
8.845
 31
0
  0
LINE
  8
LAYER1
  6
CONTINUOUS
 62
     7
 10
3.6111
 20
8.7617
 30
0
 11
3.5278
 21
8.845
 31
0
  0
LINE
  8
LAYER1
  6
CONTINUOUS
 62
     7
 10
3.4861
 20
8.7617
 30
0
 11
3.4028
 21
8.845
 31
0
  0
LINE
  8
LAYER1
  6
CONTINUOUS
 62
     7
 10
3.3472
 20
8.7617
 30
0
 11
3.2639
 21
8.845
 31
0
  0
LINE
  8
LAYER1
  6
CONTINUOUS
 62
     7
 10
3.2222
 20
8.7617
 30
0
 11
3.1389
 21
8.845
 31
0
  0
LINE
  8
LAYER1
  6
CONTINUOUS
 62
     7
 10
3.0833
 20
8.7617
 30
0
 11
3
 21
8.845
 31
0
  0
LINE
  8
LAYER1
  6
CONTINUOUS
 62
     7
 10
2.9444
 20
8.7617
 30
0
 11
2.8611
 21
8.845
 31
0
  0
LINE
  8
LAYER1
  6
CONTINUOUS
 62
     7
 10
2.8194
 20
8.7617
 30
0
 11
2.7361
 21
8.845
 31
0
  0
LINE
  8
LAYER1
  6
CONTINUOUS
 62
     7
 10
2.6806
 20
8.7617
 30
0
 11
2.5972
 21
8.845
 31
0
  0
LINE
  8
LAYER1
  6
CONTINUOUS
 62
     7
 10
2.5556
 20
8.7617
 30
0
 11
2.4722
 21
8.845
 31
0
  0
LINE
  8
LAYER1
  6
CONTINUOUS
 62
     7
 10
2.4167
 20
8.7617
 30
0
 11
2.3333
 21
8.845
 31
0
  0
LINE
  8
LAYER1
  6
CONTINUOUS
 62
     7
 10
2.2917
 20
8.7617
 30
0
 11
2.2083
 21
8.845
 31
0
  0
LINE
  8
LAYER1
  6
CONTINUOUS
 62
     7
 10
2.1528
 20
8.7617
 30
0
 11
2.0694
 21
8.845
 31
0
  0
LINE
  8
LAYER1
  6
CONTINUOUS
 62
     7
 10
2.0278
 20
8.7617
 30
0
 11
1.9444
 21
8.845
 31
0
  0
LINE
  8
LAYER1
  6
CONTINUOUS
 62
     7
 10
1.8889
 20
8.7617
 30
0
 11
1.8056
 21
8.845
 31
0
  0
LINE
  8
LAYER1
  6
CONTINUOUS
 62
     7
 10
1.75
 20
8.7617
 30
0
 11
1.6667
 21
8.845
 31
0
  0
LINE
  8
LAYER1
  6
CONTINUOUS
 62
     7
 10
1.625
 20
8.7617
 30
0
 11
1.5417
 21
8.845
 31
0
  0
LINE
  8
LAYER1
  6
CONTINUOUS
 62
     7
 10
1.4861
 20
8.7617
 30
0
 11
1.4028
 21
8.845
 31
0
  0
LINE
  8
LAYER1
  6
CONTINUOUS
 62
     7
 10
1.3611
 20
8.7617
 30
0
 11
1.2778
 21
8.845
 31
0
  0
LINE
  8
LAYER1
  6
CONTINUOUS
 62
     7
 10
1.2222
 20
8.7617
 30
0
 11
1.1389
 21
8.845
 31
0
  0
LINE
  8
LAYER1
  6
CONTINUOUS
 62
     7
 10
1.0972
 20
8.7617
 30
0
 11
1.0139
 21
8.845
 31
0
  0
LINE
  8
LAYER1
  6
CONTINUOUS
 62
     7
 10
0.9583
 20
8.7617
 30
0
 11
0.875
 21
8.845
 31
0
  0
LINE
  8
LAYER1
  6
CONTINUOUS
 62
     7
 10
0.8333
 20
8.7617
 30
0
 11
0.75
 21
8.845
 31
0
  0
LINE
  8
LAYER1
  6
CONTINUOUS
 62
     7
 10
0.6944
 20
8.7617
 30
0
 11
0.6111
 21
8.845
 31
0
  0
LINE
  8
LAYER1
  6
CONTINUOUS
 62
     7
 10
0.5556
 20
8.7617
 30
0
 11
0.4722
 21
8.845
 31
0
  0
LINE
  8
LAYER1
  6
CONTINUOUS
 62
     7
 10
5.25
 20
8.6784
 30
0
 11
5.3333
 21
8.7617
 31
0
  0
LINE
  8
LAYER1
  6
CONTINUOUS
 62
     7
 10
5.1111
 20
8.6784
 30
0
 11
5.1944
 21
8.7617
 31
0
  0
LINE
  8
LAYER1
  6
CONTINUOUS
 62
     7
 10
4.9861
 20
8.6784
 30
0
 11
5.0694
 21
8.7617
 31
0
  0
LINE
  8
LAYER1
  6
CONTINUOUS
 62
     7
 10
4.8472
 20
8.6784
 30
0
 11
4.9306
 21
8.7617
 31
0
  0
LINE
  8
LAYER1
  6
CONTINUOUS
 62
     7
 10
4.7222
 20
8.6784
 30
0
 11
4.8056
 21
8.7617
 31
0
  0
LINE
  8
LAYER1
  6
CONTINUOUS
 62
     7
 10
4.5833
 20
8.6784
 30
0
 11
4.6667
 21
8.7617
 31
0
  0
LINE
  8
LAYER1
  6
CONTINUOUS
 62
     7
 10
4.4444
 20
8.6784
 30
0
 11
4.5278
 21
8.7617
 31
0
  0
LINE
  8
LAYER1
  6
CONTINUOUS
 62
     7
 10
4.3194
 20
8.6784
 30
0
 11
4.4028
 21
8.7617
 31
0
  0
LINE
  8
LAYER1
  6
CONTINUOUS
 62
     7
 10
4.1806
 20
8.6784
 30
0
 11
4.2639
 21
8.7617
 31
0
  0
LINE
  8
LAYER1
  6
CONTINUOUS
 62
     7
 10
4.0556
 20
8.6784
 30
0
 11
4.1389
 21
8.7617
 31
0
  0
LINE
  8
LAYER1
  6
CONTINUOUS
 62
     7
 10
3.9167
 20
8.6784
 30
0
 11
4
 21
8.7617
 31
0
  0
LINE
  8
LAYER1
  6
CONTINUOUS
 62
     7
 10
3.7917
 20
8.6784
 30
0
 11
3.875
 21
8.7617
 31
0
  0
LINE
  8
LAYER1
  6
CONTINUOUS
 62
     7
 10
3.6528
 20
8.6784
 30
0
 11
3.7361
 21
8.7617
 31
0
  0
LINE
  8
LAYER1
  6
CONTINUOUS
 62
     7
 10
3.5139
 20
8.6784
 30
0
 11
3.5972
 21
8.7617
 31
0
  0
LINE
  8
LAYER1
  6
CONTINUOUS
 62
     7
 10
3.3889
 20
8.6784
 30
0
 11
3.4722
 21
8.7617
 31
0
  0
LINE
  8
LAYER1
  6
CONTINUOUS
 62
     7
 10
3.25
 20
8.6784
 30
0
 11
3.3333
 21
8.7617
 31
0
  0
LINE
  8
LAYER1
  6
CONTINUOUS
 62
     7
 10
3.125
 20
8.6784
 30
0
 11
3.2083
 21
8.7617
 31
0
  0
LINE
  8
LAYER1
  6
CONTINUOUS
 62
     7
 10
2.9861
 20
8.6784
 30
0
 11
3.0694
 21
8.7617
 31
0
  0
LINE
  8
LAYER1
  6
CONTINUOUS
 62
     7
 10
2.8611
 20
8.6784
 30
0
 11
2.9444
 21
8.7617
 31
0
  0
LINE
  8
LAYER1
  6
CONTINUOUS
 62
     7
 10
2.7222
 20
8.6784
 30
0
 11
2.8056
 21
8.7617
 31
0
  0
LINE
  8
LAYER1
  6
CONTINUOUS
 62
     7
 10
2.5972
 20
8.6784
 30
0
 11
2.6806
 21
8.7617
 31
0
  0
LINE
  8
LAYER1
  6
CONTINUOUS
 62
     7
 10
2.4583
 20
8.6784
 30
0
 11
2.5417
 21
8.7617
 31
0
  0
LINE
  8
LAYER1
  6
CONTINUOUS
 62
     7
 10
2.3194
 20
8.6784
 30
0
 11
2.4028
 21
8.7617
 31
0
  0
LINE
  8
LAYER1
  6
CONTINUOUS
 62
     7
 10
2.1944
 20
8.6784
 30
0
 11
2.2778
 21
8.7617
 31
0
  0
LINE
  8
LAYER1
  6
CONTINUOUS
 62
     7
 10
2.0556
 20
8.6784
 30
0
 11
2.1389
 21
8.7617
 31
0
  0
LINE
  8
LAYER1
  6
CONTINUOUS
 62
     7
 10
1.9306
 20
8.6784
 30
0
 11
2.0139
 21
8.7617
 31
0
  0
LINE
  8
LAYER1
  6
CONTINUOUS
 62
     7
 10
1.7917
 20
8.6784
 30
0
 11
1.875
 21
8.7617
 31
0
  0
LINE
  8
LAYER1
  6
CONTINUOUS
 62
     7
 10
1.6667
 20
8.6784
 30
0
 11
1.75
 21
8.7617
 31
0
  0
LINE
  8
LAYER1
  6
CONTINUOUS
 62
     7
 10
1.5278
 20
8.6784
 30
0
 11
1.6111
 21
8.7617
 31
0
  0
LINE
  8
LAYER1
  6
CONTINUOUS
 62
     7
 10
1.3889
 20
8.6784
 30
0
 11
1.4722
 21
8.7617
 31
0
  0
LINE
  8
LAYER1
  6
CONTINUOUS
 62
     7
 10
1.2639
 20
8.6784
 30
0
 11
1.3472
 21
8.7617
 31
0
  0
LINE
  8
LAYER1
  6
CONTINUOUS
 62
     7
 10
1.125
 20
8.6784
 30
0
 11
1.2083
 21
8.7617
 31
0
  0
LINE
  8
LAYER1
  6
CONTINUOUS
 62
     7
 10
1
 20
8.6784
 30
0
 11
1.0833
 21
8.7617
 31
0
  0
LINE
  8
LAYER1
  6
CONTINUOUS
 62
     7
 10
0.8611
 20
8.6784
 30
0
 11
0.9444
 21
8.7617
 31
0
  0
LINE
  8
LAYER1
  6
CONTINUOUS
 62
     7
 10
0.7361
 20
8.6784
 30
0
 11
0.8194
 21
8.7617
 31
0
  0
LINE
  8
LAYER1
  6
CONTINUOUS
 62
     7
 10
5.2917
 20
8.6784
 30
0
 11
5.375
 21
8.7617
 31
0
  0
LINE
  8
LAYER1
  6
CONTINUOUS
 62
     7
 10
5.1528
 20
8.6784
 30
0
 11
5.2361
 21
8.7617
 31
0
  0
LINE
  8
LAYER1
  6
CONTINUOUS
 62
     7
 10
5.0278
 20
8.6784
 30
0
 11
5.1111
 21
8.7617
 31
0
  0
LINE
  8
LAYER1
  6
CONTINUOUS
 62
     7
 10
4.8889
 20
8.6784
 30
0
 11
4.9722
 21
8.7617
 31
0
  0
LINE
  8
LAYER1
  6
CONTINUOUS
 62
     7
 10
4.7639
 20
8.6784
 30
0
 11
4.8472
 21
8.7617
 31
0
  0
LINE
  8
LAYER1
  6
CONTINUOUS
 62
     7
 10
4.625
 20
8.6784
 30
0
 11
4.7083
 21
8.7617
 31
0
  0
LINE
  8
LAYER1
  6
CONTINUOUS
 62
     7
 10
4.5
 20
8.6784
 30
0
 11
4.5833
 21
8.7617
 31
0
  0
LINE
  8
LAYER1
  6
CONTINUOUS
 62
     7
 10
4.3611
 20
8.6784
 30
0
 11
4.4444
 21
8.7617
 31
0
  0
LINE
  8
LAYER1
  6
CONTINUOUS
 62
     7
 10
4.2222
 20
8.6784
 30
0
 11
4.3056
 21
8.7617
 31
0
  0
LINE
  8
LAYER1
  6
CONTINUOUS
 62
     7
 10
4.0972
 20
8.6784
 30
0
 11
4.1806
 21
8.7617
 31
0
  0
LINE
  8
LAYER1
  6
CONTINUOUS
 62
     7
 10
3.9583
 20
8.6784
 30
0
 11
4.0417
 21
8.7617
 31
0
  0
LINE
  8
LAYER1
  6
CONTINUOUS
 62
     7
 10
3.8333
 20
8.6784
 30
0
 11
3.9167
 21
8.7617
 31
0
  0
LINE
  8
LAYER1
  6
CONTINUOUS
 62
     7
 10
3.6944
 20
8.6784
 30
0
 11
3.7778
 21
8.7617
 31
0
  0
LINE
  8
LAYER1
  6
CONTINUOUS
 62
     7
 10
3.5694
 20
8.6784
 30
0
 11
3.6528
 21
8.7617
 31
0
  0
LINE
  8
LAYER1
  6
CONTINUOUS
 62
     7
 10
3.4306
 20
8.6784
 30
0
 11
3.5139
 21
8.7617
 31
0
  0
LINE
  8
LAYER1
  6
CONTINUOUS
 62
     7
 10
3.3056
 20
8.6784
 30
0
 11
3.3889
 21
8.7617
 31
0
  0
LINE
  8
LAYER1
  6
CONTINUOUS
 62
     7
 10
3.1667
 20
8.6784
 30
0
 11
3.25
 21
8.7617
 31
0
  0
LINE
  8
LAYER1
  6
CONTINUOUS
 62
     7
 10
3.0278
 20
8.6784
 30
0
 11
3.1111
 21
8.7617
 31
0
  0
LINE
  8
LAYER1
  6
CONTINUOUS
 62
     7
 10
2.9028
 20
8.6784
 30
0
 11
2.9861
 21
8.7617
 31
0
  0
LINE
  8
LAYER1
  6
CONTINUOUS
 62
     7
 10
2.7639
 20
8.6784
 30
0
 11
2.8472
 21
8.7617
 31
0
  0
LINE
  8
LAYER1
  6
CONTINUOUS
 62
     7
 10
2.6389
 20
8.6784
 30
0
 11
2.7222
 21
8.7617
 31
0
  0
LINE
  8
LAYER1
  6
CONTINUOUS
 62
     7
 10
2.5
 20
8.6784
 30
0
 11
2.5833
 21
8.7617
 31
0
  0
LINE
  8
LAYER1
  6
CONTINUOUS
 62
     7
 10
2.375
 20
8.6784
 30
0
 11
2.4583
 21
8.7617
 31
0
  0
LINE
  8
LAYER1
  6
CONTINUOUS
 62
     7
 10
2.2361
 20
8.6784
 30
0
 11
2.3194
 21
8.7617
 31
0
  0
LINE
  8
LAYER1
  6
CONTINUOUS
 62
     7
 10
2.0972
 20
8.6784
 30
0
 11
2.1806
 21
8.7617
 31
0
  0
LINE
  8
LAYER1
  6
CONTINUOUS
 62
     7
 10
1.9722
 20
8.6784
 30
0
 11
2.0556
 21
8.7617
 31
0
  0
LINE
  8
LAYER1
  6
CONTINUOUS
 62
     7
 10
1.8333
 20
8.6784
 30
0
 11
1.9167
 21
8.7617
 31
0
  0
LINE
  8
LAYER1
  6
CONTINUOUS
 62
     7
 10
1.7083
 20
8.6784
 30
0
 11
1.7917
 21
8.7617
 31
0
  0
LINE
  8
LAYER1
  6
CONTINUOUS
 62
     7
 10
1.5694
 20
8.6784
 30
0
 11
1.6528
 21
8.7617
 31
0
  0
LINE
  8
LAYER1
  6
CONTINUOUS
 62
     7
 10
1.4444
 20
8.6784
 30
0
 11
1.5278
 21
8.7617
 31
0
  0
LINE
  8
LAYER1
  6
CONTINUOUS
 62
     7
 10
1.3056
 20
8.6784
 30
0
 11
1.3889
 21
8.7617
 31
0
  0
LINE
  8
LAYER1
  6
CONTINUOUS
 62
     7
 10
1.1806
 20
8.6784
 30
0
 11
1.2639
 21
8.7617
 31
0
  0
LINE
  8
LAYER1
  6
CONTINUOUS
 62
     7
 10
1.0417
 20
8.6784
 30
0
 11
1.125
 21
8.7617
 31
0
  0
LINE
  8
LAYER1
  6
CONTINUOUS
 62
     7
 10
0.9028
 20
8.6784
 30
0
 11
0.9861
 21
8.7617
 31
0
  0
LINE
  8
LAYER1
  6
CONTINUOUS
 62
     7
 10
0.7778
 20
8.6784
 30
0
 11
0.8611
 21
8.7617
 31
0
  0
LINE
  8
LAYER1
  6
CONTINUOUS
 62
     7
 10
5.3194
 20
8.845
 30
0
 11
5.4028
 21
8.9284
 31
0
  0
LINE
  8
LAYER1
  6
CONTINUOUS
 62
     7
 10
5.1944
 20
8.845
 30
0
 11
5.2778
 21
8.9284
 31
0
  0
LINE
  8
LAYER1
  6
CONTINUOUS
 62
     7
 10
5.0556
 20
8.845
 30
0
 11
5.1389
 21
8.9284
 31
0
  0
LINE
  8
LAYER1
  6
CONTINUOUS
 62
     7
 10
4.9306
 20
8.845
 30
0
 11
5.0139
 21
8.9284
 31
0
  0
LINE
  8
LAYER1
  6
CONTINUOUS
 62
     7
 10
4.7917
 20
8.845
 30
0
 11
4.875
 21
8.9284
 31
0
  0
LINE
  8
LAYER1
  6
CONTINUOUS
 62
     7
 10
4.6667
 20
8.845
 30
0
 11
4.75
 21
8.9284
 31
0
  0
LINE
  8
LAYER1
  6
CONTINUOUS
 62
     7
 10
4.5278
 20
8.845
 30
0
 11
4.6111
 21
8.9284
 31
0
  0
LINE
  8
LAYER1
  6
CONTINUOUS
 62
     7
 10
4.3889
 20
8.845
 30
0
 11
4.4722
 21
8.9284
 31
0
  0
LINE
  8
LAYER1
  6
CONTINUOUS
 62
     7
 10
4.2639
 20
8.845
 30
0
 11
4.3472
 21
8.9284
 31
0
  0
LINE
  8
LAYER1
  6
CONTINUOUS
 62
     7
 10
4.125
 20
8.845
 30
0
 11
4.2083
 21
8.9284
 31
0
  0
LINE
  8
LAYER1
  6
CONTINUOUS
 62
     7
 10
4
 20
8.845
 30
0
 11
4.0833
 21
8.9284
 31
0
  0
LINE
  8
LAYER1
  6
CONTINUOUS
 62
     7
 10
3.8611
 20
8.845
 30
0
 11
3.9444
 21
8.9284
 31
0
  0
LINE
  8
LAYER1
  6
CONTINUOUS
 62
     7
 10
3.7361
 20
8.845
 30
0
 11
3.8194
 21
8.9284
 31
0
  0
LINE
  8
LAYER1
  6
CONTINUOUS
 62
     7
 10
3.5972
 20
8.845
 30
0
 11
3.6806
 21
8.9284
 31
0
  0
LINE
  8
LAYER1
  6
CONTINUOUS
 62
     7
 10
3.4722
 20
8.845
 30
0
 11
3.5556
 21
8.9284
 31
0
  0
LINE
  8
LAYER1
  6
CONTINUOUS
 62
     7
 10
3.3333
 20
8.845
 30
0
 11
3.4167
 21
8.9284
 31
0
  0
LINE
  8
LAYER1
  6
CONTINUOUS
 62
     7
 10
3.1944
 20
8.845
 30
0
 11
3.2778
 21
8.9284
 31
0
  0
LINE
  8
LAYER1
  6
CONTINUOUS
 62
     7
 10
3.0694
 20
8.845
 30
0
 11
3.1528
 21
8.9284
 31
0
  0
LINE
  8
LAYER1
  6
CONTINUOUS
 62
     7
 10
2.9306
 20
8.845
 30
0
 11
3.0139
 21
8.9284
 31
0
  0
LINE
  8
LAYER1
  6
CONTINUOUS
 62
     7
 10
2.8056
 20
8.845
 30
0
 11
2.8889
 21
8.9284
 31
0
  0
LINE
  8
LAYER1
  6
CONTINUOUS
 62
     7
 10
2.6667
 20
8.845
 30
0
 11
2.75
 21
8.9284
 31
0
  0
LINE
  8
LAYER1
  6
CONTINUOUS
 62
     7
 10
2.5417
 20
8.845
 30
0
 11
2.625
 21
8.9284
 31
0
  0
LINE
  8
LAYER1
  6
CONTINUOUS
 62
     7
 10
2.4028
 20
8.845
 30
0
 11
2.4861
 21
8.9284
 31
0
  0
LINE
  8
LAYER1
  6
CONTINUOUS
 62
     7
 10
2.2639
 20
8.845
 30
0
 11
2.3472
 21
8.9284
 31
0
  0
LINE
  8
LAYER1
  6
CONTINUOUS
 62
     7
 10
2.1389
 20
8.845
 30
0
 11
2.2222
 21
8.9284
 31
0
  0
LINE
  8
LAYER1
  6
CONTINUOUS
 62
     7
 10
2
 20
8.845
 30
0
 11
2.0833
 21
8.9284
 31
0
  0
LINE
  8
LAYER1
  6
CONTINUOUS
 62
     7
 10
1.875
 20
8.845
 30
0
 11
1.9583
 21
8.9284
 31
0
  0
LINE
  8
LAYER1
  6
CONTINUOUS
 62
     7
 10
1.7361
 20
8.845
 30
0
 11
1.8194
 21
8.9284
 31
0
  0
LINE
  8
LAYER1
  6
CONTINUOUS
 62
     7
 10
1.6111
 20
8.845
 30
0
 11
1.6944
 21
8.9284
 31
0
  0
LINE
  8
LAYER1
  6
CONTINUOUS
 62
     7
 10
1.4722
 20
8.845
 30
0
 11
1.5556
 21
8.9284
 31
0
  0
LINE
  8
LAYER1
  6
CONTINUOUS
 62
     7
 10
1.3472
 20
8.845
 30
0
 11
1.4306
 21
8.9284
 31
0
  0
LINE
  8
LAYER1
  6
CONTINUOUS
 62
     7
 10
1.2083
 20
8.845
 30
0
 11
1.2917
 21
8.9284
 31
0
  0
LINE
  8
LAYER1
  6
CONTINUOUS
 62
     7
 10
1.0694
 20
8.845
 30
0
 11
1.1528
 21
8.9284
 31
0
  0
LINE
  8
LAYER1
  6
CONTINUOUS
 62
     7
 10
0.9444
 20
8.845
 30
0
 11
1.0278
 21
8.9284
 31
0
  0
LINE
  8
LAYER1
  6
CONTINUOUS
 62
     7
 10
0.8056
 20
8.845
 30
0
 11
0.8889
 21
8.9284
 31
0
  0
LINE
  8
LAYER1
  6
CONTINUOUS
 62
     7
 10
0.6806
 20
8.845
 30
0
 11
0.7639
 21
8.9284
 31
0
  0
LINE
  8
LAYER1
  6
CONTINUOUS
 62
     7
 10
5.375
 20
8.845
 30
0
 11
5.4583
 21
8.9284
 31
0
  0
LINE
  8
LAYER1
  6
CONTINUOUS
 62
     7
 10
5.2361
 20
8.845
 30
0
 11
5.3194
 21
8.9284
 31
0
  0
LINE
  8
LAYER1
  6
CONTINUOUS
 62
     7
 10
5.0972
 20
8.845
 30
0
 11
5.1806
 21
8.9284
 31
0
  0
LINE
  8
LAYER1
  6
CONTINUOUS
 62
     7
 10
4.9722
 20
8.845
 30
0
 11
5.0556
 21
8.9284
 31
0
  0
LINE
  8
LAYER1
  6
CONTINUOUS
 62
     7
 10
4.8333
 20
8.845
 30
0
 11
4.9167
 21
8.9284
 31
0
  0
LINE
  8
LAYER1
  6
CONTINUOUS
 62
     7
 10
4.7083
 20
8.845
 30
0
 11
4.7917
 21
8.9284
 31
0
  0
LINE
  8
LAYER1
  6
CONTINUOUS
 62
     7
 10
4.5694
 20
8.845
 30
0
 11
4.6528
 21
8.9284
 31
0
  0
LINE
  8
LAYER1
  6
CONTINUOUS
 62
     7
 10
4.4444
 20
8.845
 30
0
 11
4.5278
 21
8.9284
 31
0
  0
LINE
  8
LAYER1
  6
CONTINUOUS
 62
     7
 10
4.3056
 20
8.845
 30
0
 11
4.3889
 21
8.9284
 31
0
  0
LINE
  8
LAYER1
  6
CONTINUOUS
 62
     7
 10
4.1806
 20
8.845
 30
0
 11
4.2639
 21
8.9284
 31
0
  0
LINE
  8
LAYER1
  6
CONTINUOUS
 62
     7
 10
4.0417
 20
8.845
 30
0
 11
4.125
 21
8.9284
 31
0
  0
LINE
  8
LAYER1
  6
CONTINUOUS
 62
     7
 10
3.9028
 20
8.845
 30
0
 11
3.9861
 21
8.9284
 31
0
  0
LINE
  8
LAYER1
  6
CONTINUOUS
 62
     7
 10
3.7778
 20
8.845
 30
0
 11
3.8611
 21
8.9284
 31
0
  0
LINE
  8
LAYER1
  6
CONTINUOUS
 62
     7
 10
3.6389
 20
8.845
 30
0
 11
3.7222
 21
8.9284
 31
0
  0
LINE
  8
LAYER1
  6
CONTINUOUS
 62
     7
 10
3.5139
 20
8.845
 30
0
 11
3.5972
 21
8.9284
 31
0
  0
LINE
  8
LAYER1
  6
CONTINUOUS
 62
     7
 10
3.375
 20
8.845
 30
0
 11
3.4583
 21
8.9284
 31
0
  0
LINE
  8
LAYER1
  6
CONTINUOUS
 62
     7
 10
3.25
 20
8.845
 30
0
 11
3.3333
 21
8.9284
 31
0
  0
LINE
  8
LAYER1
  6
CONTINUOUS
 62
     7
 10
3.1111
 20
8.845
 30
0
 11
3.1944
 21
8.9284
 31
0
  0
LINE
  8
LAYER1
  6
CONTINUOUS
 62
     7
 10
2.9722
 20
8.845
 30
0
 11
3.0556
 21
8.9284
 31
0
  0
LINE
  8
LAYER1
  6
CONTINUOUS
 62
     7
 10
2.8472
 20
8.845
 30
0
 11
2.9306
 21
8.9284
 31
0
  0
LINE
  8
LAYER1
  6
CONTINUOUS
 62
     7
 10
2.7083
 20
8.845
 30
0
 11
2.7917
 21
8.9284
 31
0
  0
LINE
  8
LAYER1
  6
CONTINUOUS
 62
     7
 10
2.5833
 20
8.845
 30
0
 11
2.6667
 21
8.9284
 31
0
  0
LINE
  8
LAYER1
  6
CONTINUOUS
 62
     7
 10
2.4444
 20
8.845
 30
0
 11
2.5278
 21
8.9284
 31
0
  0
LINE
  8
LAYER1
  6
CONTINUOUS
 62
     7
 10
2.3194
 20
8.845
 30
0
 11
2.4028
 21
8.9284
 31
0
  0
LINE
  8
LAYER1
  6
CONTINUOUS
 62
     7
 10
2.1806
 20
8.845
 30
0
 11
2.2639
 21
8.9284
 31
0
  0
LINE
  8
LAYER1
  6
CONTINUOUS
 62
     7
 10
2.0556
 20
8.845
 30
0
 11
2.1389
 21
8.9284
 31
0
  0
LINE
  8
LAYER1
  6
CONTINUOUS
 62
     7
 10
1.9167
 20
8.845
 30
0
 11
2
 21
8.9284
 31
0
  0
LINE
  8
LAYER1
  6
CONTINUOUS
 62
     7
 10
1.7778
 20
8.845
 30
0
 11
1.8611
 21
8.9284
 31
0
  0
LINE
  8
LAYER1
  6
CONTINUOUS
 62
     7
 10
1.6528
 20
8.845
 30
0
 11
1.7361
 21
8.9284
 31
0
  0
LINE
  8
LAYER1
  6
CONTINUOUS
 62
     7
 10
1.5139
 20
8.845
 30
0
 11
1.5972
 21
8.9284
 31
0
  0
LINE
  8
LAYER1
  6
CONTINUOUS
 62
     7
 10
1.3889
 20
8.845
 30
0
 11
1.4722
 21
8.9284
 31
0
  0
LINE
  8
LAYER1
  6
CONTINUOUS
 62
     7
 10
1.25
 20
8.845
 30
0
 11
1.3333
 21
8.9284
 31
0
  0
LINE
  8
LAYER1
  6
CONTINUOUS
 62
     7
 10
1.125
 20
8.845
 30
0
 11
1.2083
 21
8.9284
 31
0
  0
LINE
  8
LAYER1
  6
CONTINUOUS
 62
     7
 10
0.9861
 20
8.845
 30
0
 11
1.0694
 21
8.9284
 31
0
  0
LINE
  8
LAYER1
  6
CONTINUOUS
 62
     7
 10
0.8472
 20
8.845
 30
0
 11
0.9306
 21
8.9284
 31
0
  0
LINE
  8
LAYER1
  6
CONTINUOUS
 62
     7
 10
0.7222
 20
8.845
 30
0
 11
0.8056
 21
8.9284
 31
0
  0
LINE
  8
LAYER1
  6
CONTINUOUS
 62
     7
 10
0.6528
 20
8.7339
 30
0
 11
0.6806
 21
8.7617
 31
0
  0
LINE
  8
LAYER1
  6
CONTINUOUS
 62
     7
 10
0.6528
 20
8.6923
 30
0
 11
0.7222
 21
8.7617
 31
0
  0
LINE
  8
LAYER1
  6
CONTINUOUS
 62
     7
 10
0.6528
 20
8.7617
 30
0
 11
0.6528
 21
8.6784
 31
0
  0
LINE
  8
LAYER1
  6
CONTINUOUS
 62
     7
 10
0.6528
 20
8.9284
 30
0
 11
0.6528
 21
8.845
 31
0
  0
LINE
  8
LAYER1
  6
CONTINUOUS
 62
     7
 10
0.6528
 20
8.9284
 30
0
 11
5.4583
 21
8.9284
 31
0
  0
LINE
  8
LAYER1
  6
CONTINUOUS
 62
     7
 10
0.6528
 20
8.6784
 30
0
 11
5.4583
 21
8.6784
 31
0
  0
LINE
  8
LAYER1
  6
CONTINUOUS
 62
     7
 10
5.4167
 20
8.6784
 30
0
 11
5.4583
 21
8.7062
 31
0
  0
LINE
  8
LAYER1
  6
CONTINUOUS
 62
     7
 10
5.375
 20
8.6784
 30
0
 11
5.4583
 21
8.7478
 31
0
  0
LINE
  8
LAYER1
  6
CONTINUOUS
 62
     7
 10
5.4583
 20
8.9284
 30
0
 11
5.4583
 21
8.845
 31
0
  0
LINE
  8
LAYER1
  6
CONTINUOUS
 62
     7
 10
5.4583
 20
8.6784
 30
0
 11
5.4583
 21
8.7617
 31
0
  0
LINE
  8
LAYER1
  6
CONTINUOUS
 62
     7
 10
0.4306
 20
8.845
 30
0
 11
5.7778
 21
8.845
 31
0
  0
LINE
  8
LAYER1
  6
CONTINUOUS
 62
     7
 10
0.4306
 20
8.7617
 30
0
 11
5.7778
 21
8.7617
 31
0
  0
LINE
  8
LAYER1
  6
CONTINUOUS
 62
     7
 10
5.7778
 20
8.8173
 30
0
 11
5.75
 21
8.845
 31
0
  0
ENDBLK
  8
LAYER1
  0
BLOCK
  8
LAYER1
  2
Group2
 70
     0
 10
0
 20
0
 30
0
  0
LINE
  8
LAYER1
  6
CONTINUOUS
 62
     7
 10
5.7778
 20
8.845
 30
0
 11
5.7778
 21
8.7617
 31
0
  0
LINE
  8
LAYER1
  6
CONTINUOUS
 62
     7
 10
0.2083
 20
10.7617
 30
0
 11
5.5278
 21
10.7617
 31
0
  0
TEXT
  8
LAYER1
 62
     7
 10
0.2496
 20
10.5314
 30
0
 40
0.125
  1
Riveted Joint Symbols (Shop Riveted & Field Riveted)
 50
0
999
Geneva
  0
ENDBLK
  8
LAYER1
  0
BLOCK
  8
LAYER1
  2
Group3
 70
     0
 10
0
 20
0
 30
0
  0
CIRCLE
  8
LAYER1
 10
12.6319
 20
8.6159
 30
0
 40
0.1319
  0
LINE
  8
LAYER1
  6
CONTINUOUS
 62
     7
 10
12.4306
 20
8.4284
 30
0
 11
12.8194
 21
8.8034
 31
0
  0
LINE
  8
LAYER1
  6
CONTINUOUS
 62
     7
 10
12.4722
 20
8.4006
 30
0
 11
12.8472
 21
8.7756
 31
0
  0
ENDBLK
  8
LAYER1
  0
BLOCK
  8
LAYER1
  2
Group4
 70
     0
 10
0
 20
0
 30
0
  0
LINE
  8
LAYER1
  6
CONTINUOUS
 62
     7
 10
12.4028
 20
8.4562
 30
0
 11
12.7917
 21
8.845
 31
0
  0
CIRCLE
  8
LAYER1
 10
11.3819
 20
8.6159
 30
0
 40
0.1319
  0
LINE
  8
LAYER1
  6
CONTINUOUS
 62
     7
 10
11.2917
 20
8.5256
 30
0
 11
11.4583
 21
8.7062
 31
0
  0
LINE
  8
LAYER1
  6
CONTINUOUS
 62
     7
 10
11.2639
 20
8.5673
 30
0
 11
11.4306
 21
8.7339
 31
0
  0
ENDBLK
  8
LAYER1
  0
BLOCK
  8
LAYER1
  2
Group5
 70
     0
 10
0
 20
0
 30
0
  0
LINE
  8
LAYER1
  6
CONTINUOUS
 62
     7
 10
11.3194
 20
8.4978
 30
0
 11
11.4861
 21
8.6645
 31
0
  0
CIRCLE
  8
LAYER1
 10
10.1319
 20
8.6159
 30
0
 40
0.1319
  0
LINE
  8
LAYER1
  6
CONTINUOUS
 62
     7
 10
9.9028
 20
8.4562
 30
0
 11
10.0139
 21
8.5673
 31
0
  0
LINE
  8
LAYER1
  6
CONTINUOUS
 62
     7
 10
10.1806
 20
8.7339
 30
0
 11
10.2917
 21
8.845
 31
0
  0
LINE
  8
LAYER1
  6
CONTINUOUS
 62
     7
 10
9.9306
 20
8.4284
 30
0
 11
10.0417
 21
8.5256
 31
0
  0
LINE
  8
LAYER1
  6
CONTINUOUS
 62
     7
 10
10.2083
 20
8.7062
 30
0
 11
10.3194
 21
8.8034
 31
0
  0
LINE
  8
LAYER1
  6
CONTINUOUS
 62
     7
 10
9.9722
 20
8.4006
 30
0
 11
10.0694
 21
8.4978
 31
0
  0
ENDBLK
  8
LAYER1
  0
BLOCK
  8
LAYER1
  2
Group6
 70
     0
 10
0
 20
0
 30
0
  0
LINE
  8
LAYER1
  6
CONTINUOUS
 62
     7
 10
10.2361
 20
8.6645
 30
0
 11
10.3472
 21
8.7756
 31
0
  0
CIRCLE
  8
LAYER1
 10
10.9097
 20
5.4909
 30
0
 40
0.1319
  0
LINE
  8
LAYER1
  6
CONTINUOUS
 62
     7
 10
10.7222
 20
5.3173
 30
0
 11
10.8194
 21
5.4145
 31
0
  0
LINE
  8
LAYER1
  6
CONTINUOUS
 62
     7
 10
11
 20
5.5812
 30
0
 11
11.0972
 21
5.6923
 31
0
  0
LINE
  8
LAYER1
  6
CONTINUOUS
 62
     7
 10
11.0972
 20
5.3173
 30
0
 11
11
 21
5.4145
 31
0
  0
ENDBLK
  8
LAYER1
  0
BLOCK
  8
LAYER1
  2
Group7
 70
     0
 10
0
 20
0
 30
0
  0
INSERT
  8
LAYER1
  2
Group6
 10
0
 20
0
 30
0
  0
LINE
  8
LAYER1
  6
CONTINUOUS
 62
     7
 10
10.8194
 20
5.5812
 30
0
 11
10.7222
 21
5.6923
 31
0
  0
POLYLINE
  8
LAYER1
 66
     1
 62
     7
 70
     1
 40
0.0463
 41
0.0463
  0
VERTEX
  8
LAYER1
 10
10.8935
 20
5.521
 30
0
 42
1
 70
     0
  0
VERTEX
  8
LAYER1
 10
10.9398
 20
5.4747
 30
0
 42
1
 70
     0
  0
SEQEND
  0
CIRCLE
  8
LAYER1
 10
10.9167
 20
5.4978
 30
0
 40
0.0694
  0
ENDBLK
  8
LAYER1
  0
BLOCK
  8
LAYER1
  2
Group8
 70
     0
 10
0
 20
0
 30
0
  0
CIRCLE
  8
LAYER1
 10
12.1597
 20
5.4909
 30
0
 40
0.1319
  0
LINE
  8
LAYER1
  6
CONTINUOUS
 62
     7
 10
12.0694
 20
5.4145
 30
0
 11
12.25
 21
5.5812
 31
0
  0
ENDBLK
  8
LAYER1
  0
BLOCK
  8
LAYER1
  2
Group9
 70
     0
 10
0
 20
0
 30
0
  0
INSERT
  8
LAYER1
  2
Group8
 10
0
 20
0
 30
0
  0
LINE
  8
LAYER1
  6
CONTINUOUS
 62
     7
 10
12.25
 20
5.4006
 30
0
 11
12.0694
 21
5.5812
 31
0
  0
POLYLINE
  8
LAYER1
 66
     1
 62
     7
 70
     1
 40
0.0463
 41
0.0463
  0
VERTEX
  8
LAYER1
 10
12.1435
 20
5.521
 30
0
 42
1
 70
     0
  0
VERTEX
  8
LAYER1
 10
12.1898
 20
5.4747
 30
0
 42
1
 70
     0
  0
SEQEND
  0
CIRCLE
  8
LAYER1
 10
12.1667
 20
5.4978
 30
0
 40
0.0694
  0
ENDBLK
  8
LAYER1
  0
BLOCK
  8
LAYER1
  2
Group10
 70
     0
 10
0
 20
0
 30
0
  0
CIRCLE
  8
LAYER1
 10
13.4097
 20
5.4909
 30
0
 40
0.1319
  0
LINE
  8
LAYER1
  6
CONTINUOUS
 62
     7
 10
13.5972
 20
5.3173
 30
0
 11
13.2222
 21
5.6923
 31
0
  0
ENDBLK
  8
LAYER1
  0
BLOCK
  8
LAYER1
  2
Group11
 70
     0
 10
0
 20
0
 30
0
  0
INSERT
  8
LAYER1
  2
Group10
 10
0
 20
0
 30
0
  0
LINE
  8
LAYER1
  6
CONTINUOUS
 62
     7
 10
13.2222
 20
5.3173
 30
0
 11
13.5972
 21
5.6923
 31
0
  0
POLYLINE
  8
LAYER1
 66
     1
 62
     7
 70
     1
 40
0.0463
 41
0.0463
  0
VERTEX
  8
LAYER1
 10
13.3935
 20
5.521
 30
0
 42
1
 70
     0
  0
VERTEX
  8
LAYER1
 10
13.4398
 20
5.4747
 30
0
 42
1
 70
     0
  0
SEQEND
  0
CIRCLE
  8
LAYER1
 10
13.4167
 20
5.4978
 30
0
 40
0.0694
  0
ENDBLK
  8
LAYER1
  0
BLOCK
  8
LAYER1
  2
Group12
 70
     0
 10
0
 20
0
 30
0
  0
POLYLINE
  8
LAYER1
  6
CONTINUOUS
 62
     7
 66
     1
 70
     0
 40
0.0039
 41
0.0039
  0
VERTEX
  8
LAYER1
 10
0.8889
 20
8.9214
 30
0
 70
     0
  0
VERTEX
  8
LAYER1
 10
0.8916
 20
8.9479
 30
0
 70
     0
  0
VERTEX
  8
LAYER1
 10
0.8993
 20
8.9726
 30
0
 70
     0
  0
VERTEX
  8
LAYER1
 10
0.9116
 20
8.995
 30
0
 70
     0
  0
VERTEX
  8
LAYER1
 10
0.9277
 20
9.0146
 30
0
 70
     0
  0
VERTEX
  8
LAYER1
 10
0.9473
 20
9.0307
 30
0
 70
     0
  0
VERTEX
  8
LAYER1
 10
0.9697
 20
9.0429
 30
0
 70
     0
  0
VERTEX
  8
LAYER1
 10
0.9944
 20
9.0507
 30
0
 70
     0
  0
VERTEX
  8
LAYER1
 10
1.0208
 20
9.0534
 30
0
 70
     0
  0
VERTEX
  8
LAYER1
 10
1.0208
 20
9.0534
 30
0
 70
     0
  0
VERTEX
  8
LAYER1
 10
1.0473
 20
9.0507
 30
0
 70
     0
  0
VERTEX
  8
LAYER1
 10
1.072
 20
9.0429
 30
0
 70
     0
  0
VERTEX
  8
LAYER1
 10
1.0944
 20
9.0307
 30
0
 70
     0
  0
VERTEX
  8
LAYER1
 10
1.1139
 20
9.0146
 30
0
 70
     0
  0
VERTEX
  8
LAYER1
 10
1.1301
 20
8.995
 30
0
 70
     0
  0
VERTEX
  8
LAYER1
 10
1.1423
 20
8.9726
 30
0
 70
     0
  0
VERTEX
  8
LAYER1
 10
1.1501
 20
8.9479
 30
0
 70
     0
  0
VERTEX
  8
LAYER1
 10
1.1528
 20
8.9214
 30
0
 70
     0
  0
SEQEND
  0
ENDBLK
  8
LAYER1
  0
BLOCK
  8
LAYER1
  2
Group13
 70
     0
 10
0
 20
0
 30
0
  0
LINE
  8
LAYER1
  6
CONTINUOUS
 62
     7
 10
0.8889
 20
8.9284
 30
0
 11
1.1389
 21
8.9284
 31
0
  0
POLYLINE
  8
LAYER1
  6
CONTINUOUS
 62
     7
 66
     1
 70
     0
 40
0.0039
 41
0.0039
  0
VERTEX
  8
LAYER1
 10
1.1528
 20
8.6714
 30
0
 70
     0
  0
VERTEX
  8
LAYER1
 10
1.1501
 20
8.645
 30
0
 70
     0
  0
VERTEX
  8
LAYER1
 10
1.1423
 20
8.6203
 30
0
 70
     0
  0
VERTEX
  8
LAYER1
 10
1.1301
 20
8.5979
 30
0
 70
     0
  0
VERTEX
  8
LAYER1
 10
1.1139
 20
8.5783
 30
0
 70
     0
  0
VERTEX
  8
LAYER1
 10
1.0944
 20
8.5622
 30
0
 70
     0
  0
VERTEX
  8
LAYER1
 10
1.072
 20
8.5499
 30
0
 70
     0
  0
VERTEX
  8
LAYER1
 10
1.0473
 20
8.5422
 30
0
 70
     0
  0
VERTEX
  8
LAYER1
 10
1.0208
 20
8.5395
 30
0
 70
     0
  0
VERTEX
  8
LAYER1
 10
1.0208
 20
8.5395
 30
0
 70
     0
  0
VERTEX
  8
LAYER1
 10
0.9944
 20
8.5422
 30
0
 70
     0
  0
VERTEX
  8
LAYER1
 10
0.9697
 20
8.5499
 30
0
 70
     0
  0
VERTEX
  8
LAYER1
 10
0.9473
 20
8.5622
 30
0
 70
     0
  0
VERTEX
  8
LAYER1
 10
0.9277
 20
8.5783
 30
0
 70
     0
  0
VERTEX
  8
LAYER1
 10
0.9115
 20
8.5979
 30
0
 70
     0
  0
VERTEX
  8
LAYER1
 10
0.8993
 20
8.6203
 30
0
 70
     0
  0
VERTEX
  8
LAYER1
 10
0.8916
 20
8.645
 30
0
 70
     0
  0
VERTEX
  8
LAYER1
 10
0.8889
 20
8.6714
 30
0
 70
     0
  0
SEQEND
  0
ENDBLK
  8
LAYER1
  0
BLOCK
  8
LAYER1
  2
Group14
 70
     0
 10
0
 20
0
 30
0
  0
POLYLINE
  8
LAYER1
  6
CONTINUOUS
 62
     7
 66
     1
 70
     0
 40
0.0039
 41
0.0039
  0
VERTEX
  8
LAYER1
 10
1.0694
 20
8.9284
 30
0
 70
     0
  0
VERTEX
  8
LAYER1
 10
0.9444
 20
8.9284
 30
0
 70
     0
  0
VERTEX
  8
LAYER1
 10
0.9444
 20
8.6784
 30
0
 70
     0
  0
VERTEX
  8
LAYER1
 10
1.0694
 20
8.6784
 30
0
 70
     0
  0
VERTEX
  8
LAYER1
 10
1.0694
 20
8.9284
 30
0
 70
     0
  0
SEQEND
  0
INSERT
  8
LAYER1
  2
Group12
 10
0
 20
0
 30
0
  0
INSERT
  8
LAYER1
  2
Group13
 10
0
 20
0
 30
0
  0
ENDBLK
  8
LAYER1
  0
BLOCK
  8
LAYER1
  2
Group15
 70
     0
 10
0
 20
0
 30
0
  0
LINE
  8
LAYER1
  6
CONTINUOUS
 62
     7
 10
0.8889
 20
8.6784
 30
0
 11
1.1389
 21
8.6784
 31
0
  0
CIRCLE
  8
LAYER1
 10
2.2569
 20
9.4214
 30
0
 40
0.1319
  0
LINE
  8
LAYER1
  6
CONTINUOUS
 62
     7
 10
2.0694
 20
9.2339
 30
0
 11
2.1667
 21
9.345
 31
0
  0
LINE
  8
LAYER1
  6
CONTINUOUS
 62
     7
 10
2.3333
 20
9.5117
 30
0
 11
2.4444
 21
9.6089
 31
0
  0
LINE
  8
LAYER1
  6
CONTINUOUS
 62
     7
 10
2.4444
 20
9.2339
 30
0
 11
2.3333
 21
9.345
 31
0
  0
ENDBLK
  8
LAYER1
  0
BLOCK
  8
LAYER1
  2
Group16
 70
     0
 10
0
 20
0
 30
0
  0
LINE
  8
LAYER1
  6
CONTINUOUS
 62
     7
 10
2.1667
 20
9.5117
 30
0
 11
2.0694
 21
9.6089
 31
0
  0
POLYLINE
  8
LAYER1
  6
CONTINUOUS
 62
     7
 66
     1
 70
     0
 40
0.0039
 41
0.0039
  0
VERTEX
  8
LAYER1
 10
2.3889
 20
8.6714
 30
0
 70
     0
  0
VERTEX
  8
LAYER1
 10
2.3862
 20
8.645
 30
0
 70
     0
  0
VERTEX
  8
LAYER1
 10
2.3784
 20
8.6203
 30
0
 70
     0
  0
VERTEX
  8
LAYER1
 10
2.3662
 20
8.5979
 30
0
 70
     0
  0
VERTEX
  8
LAYER1
 10
2.35
 20
8.5783
 30
0
 70
     0
  0
VERTEX
  8
LAYER1
 10
2.3305
 20
8.5622
 30
0
 70
     0
  0
VERTEX
  8
LAYER1
 10
2.3081
 20
8.5499
 30
0
 70
     0
  0
VERTEX
  8
LAYER1
 10
2.2834
 20
8.5422
 30
0
 70
     0
  0
VERTEX
  8
LAYER1
 10
2.2569
 20
8.5395
 30
0
 70
     0
  0
VERTEX
  8
LAYER1
 10
2.2569
 20
8.5395
 30
0
 70
     0
  0
VERTEX
  8
LAYER1
 10
2.2305
 20
8.5422
 30
0
 70
     0
  0
VERTEX
  8
LAYER1
 10
2.2058
 20
8.5499
 30
0
 70
     0
  0
VERTEX
  8
LAYER1
 10
2.1834
 20
8.5622
 30
0
 70
     0
  0
VERTEX
  8
LAYER1
 10
2.1638
 20
8.5783
 30
0
 70
     0
  0
VERTEX
  8
LAYER1
 10
2.1477
 20
8.5979
 30
0
 70
     0
  0
VERTEX
  8
LAYER1
 10
2.1354
 20
8.6203
 30
0
 70
     0
  0
VERTEX
  8
LAYER1
 10
2.1277
 20
8.645
 30
0
 70
     0
  0
VERTEX
  8
LAYER1
 10
2.125
 20
8.6714
 30
0
 70
     0
  0
SEQEND
  0
ENDBLK
  8
LAYER1
  0
BLOCK
  8
LAYER1
  2
Group17
 70
     0
 10
0
 20
0
 30
0
  0
LINE
  8
LAYER1
  6
CONTINUOUS
 62
     7
 10
2.125
 20
8.6784
 30
0
 11
2.375
 21
8.6784
 31
0
  0
POLYLINE
  8
LAYER1
  6
CONTINUOUS
 62
     7
 66
     1
 70
     0
 40
0.0039
 41
0.0039
  0
VERTEX
  8
LAYER1
 10
2.1111
 20
8.9284
 30
0
 70
     0
  0
VERTEX
  8
LAYER1
 10
2.1944
 20
8.845
 30
0
 70
     0
  0
VERTEX
  8
LAYER1
 10
2.1944
 20
8.6784
 30
0
 70
     0
  0
VERTEX
  8
LAYER1
 10
2.3194
 20
8.6784
 30
0
 70
     0
  0
VERTEX
  8
LAYER1
 10
2.3194
 20
8.845
 30
0
 70
     0
  0
VERTEX
  8
LAYER1
 10
2.4028
 20
8.9284
 30
0
 70
     0
  0
VERTEX
  8
LAYER1
 10
2.1111
 20
8.9284
 30
0
 70
     0
  0
SEQEND
  0
ENDBLK
  8
LAYER1
  0
BLOCK
  8
LAYER1
  2
Group18
 70
     0
 10
0
 20
0
 30
0
  0
INSERT
  8
LAYER1
  2
Group16
 10
0
 20
0
 30
0
  0
INSERT
  8
LAYER1
  2
Group17
 10
0
 20
0
 30
0
  0
ENDBLK
  8
LAYER1
  0
BLOCK
  8
LAYER1
  2
Group19
 70
     0
 10
0
 20
0
 30
0
  0
LINE
  8
LAYER1
  6
CONTINUOUS
 62
     7
 10
2.1944
 20
8.845
 30
0
 11
2.3194
 21
8.845
 31
0
  0
CIRCLE
  8
LAYER1
 10
3.4931
 20
9.4214
 30
0
 40
0.1319
  0
LINE
  8
LAYER1
  6
CONTINUOUS
 62
     7
 10
3.4028
 20
9.345
 30
0
 11
3.5694
 21
9.5117
 31
0
  0
ENDBLK
  8
LAYER1
  0
BLOCK
  8
LAYER1
  2
Group20
 70
     0
 10
0
 20
0
 30
0
  0
LINE
  8
LAYER1
  6
CONTINUOUS
 62
     7
 10
3.5833
 20
9.3312
 30
0
 11
3.4028
 21
9.5117
 31
0
  0
POLYLINE
  8
LAYER1
  6
CONTINUOUS
 62
     7
 66
     1
 70
     0
 40
0.0039
 41
0.0039
  0
VERTEX
  8
LAYER1
 10
3.3611
 20
8.9214
 30
0
 70
     0
  0
VERTEX
  8
LAYER1
 10
3.3638
 20
8.9479
 30
0
 70
     0
  0
VERTEX
  8
LAYER1
 10
3.3715
 20
8.9726
 30
0
 70
     0
  0
VERTEX
  8
LAYER1
 10
3.3838
 20
8.995
 30
0
 70
     0
  0
VERTEX
  8
LAYER1
 10
3.3999
 20
9.0146
 30
0
 70
     0
  0
VERTEX
  8
LAYER1
 10
3.4195
 20
9.0307
 30
0
 70
     0
  0
VERTEX
  8
LAYER1
 10
3.4419
 20
9.0429
 30
0
 70
     0
  0
VERTEX
  8
LAYER1
 10
3.4666
 20
9.0507
 30
0
 70
     0
  0
VERTEX
  8
LAYER1
 10
3.4931
 20
9.0534
 30
0
 70
     0
  0
VERTEX
  8
LAYER1
 10
3.4931
 20
9.0534
 30
0
 70
     0
  0
VERTEX
  8
LAYER1
 10
3.5195
 20
9.0507
 30
0
 70
     0
  0
VERTEX
  8
LAYER1
 10
3.5442
 20
9.0429
 30
0
 70
     0
  0
VERTEX
  8
LAYER1
 10
3.5666
 20
9.0307
 30
0
 70
     0
  0
VERTEX
  8
LAYER1
 10
3.5862
 20
9.0146
 30
0
 70
     0
  0
VERTEX
  8
LAYER1
 10
3.6023
 20
8.995
 30
0
 70
     0
  0
VERTEX
  8
LAYER1
 10
3.6146
 20
8.9726
 30
0
 70
     0
  0
VERTEX
  8
LAYER1
 10
3.6223
 20
8.9479
 30
0
 70
     0
  0
VERTEX
  8
LAYER1
 10
3.625
 20
8.9214
 30
0
 70
     0
  0
SEQEND
  0
ENDBLK
  8
LAYER1
  0
BLOCK
  8
LAYER1
  2
Group21
 70
     0
 10
0
 20
0
 30
0
  0
LINE
  8
LAYER1
  6
CONTINUOUS
 62
     7
 10
3.3611
 20
8.9284
 30
0
 11
3.6111
 21
8.9284
 31
0
  0
POLYLINE
  8
LAYER1
  6
CONTINUOUS
 62
     7
 66
     1
 70
     0
 40
0.0039
 41
0.0039
  0
VERTEX
  8
LAYER1
 10
3.3472
 20
8.6784
 30
0
 70
     0
  0
VERTEX
  8
LAYER1
 10
3.4306
 20
8.7617
 30
0
 70
     0
  0
VERTEX
  8
LAYER1
 10
3.4306
 20
8.9284
 30
0
 70
     0
  0
VERTEX
  8
LAYER1
 10
3.5556
 20
8.9284
 30
0
 70
     0
  0
VERTEX
  8
LAYER1
 10
3.5556
 20
8.7617
 30
0
 70
     0
  0
VERTEX
  8
LAYER1
 10
3.6389
 20
8.6784
 30
0
 70
     0
  0
VERTEX
  8
LAYER1
 10
3.3472
 20
8.6784
 30
0
 70
     0
  0
SEQEND
  0
ENDBLK
  8
LAYER1
  0
BLOCK
  8
LAYER1
  2
Group22
 70
     0
 10
0
 20
0
 30
0
  0
INSERT
  8
LAYER1
  2
Group20
 10
0
 20
0
 30
0
  0
INSERT
  8
LAYER1
  2
Group21
 10
0
 20
0
 30
0
  0
ENDBLK
  8
LAYER1
  0
BLOCK
  8
LAYER1
  2
Group23
 70
     0
 10
0
 20
0
 30
0
  0
LINE
  8
LAYER1
  6
CONTINUOUS
 62
     7
 10
3.4306
 20
8.7617
 30
0
 11
3.5556
 21
8.7617
 31
0
  0
CIRCLE
  8
LAYER1
 10
4.7292
 20
9.4214
 30
0
 40
0.1319
  0
LINE
  8
LAYER1
  6
CONTINUOUS
 62
     7
 10
4.9167
 20
9.2339
 30
0
 11
4.5417
 21
9.6089
 31
0
  0
ENDBLK
  8
LAYER1
  0
BLOCK
  8
LAYER1
  2
Group24
 70
     0
 10
0
 20
0
 30
0
  0
LINE
  8
LAYER1
  6
CONTINUOUS
 62
     7
 10
4.5417
 20
9.2339
 30
0
 11
4.9167
 21
9.6089
 31
0
  0
POLYLINE
  8
LAYER1
  6
CONTINUOUS
 62
     7
 66
     1
 70
     0
 40
0.0039
 41
0.0039
  0
VERTEX
  8
LAYER1
 10
4.875
 20
8.6784
 30
0
 70
     0
  0
VERTEX
  8
LAYER1
 10
4.7917
 20
8.7617
 30
0
 70
     0
  0
VERTEX
  8
LAYER1
 10
4.7917
 20
8.845
 30
0
 70
     0
  0
VERTEX
  8
LAYER1
 10
4.875
 20
8.9284
 30
0
 70
     0
  0
VERTEX
  8
LAYER1
 10
4.5833
 20
8.9284
 30
0
 70
     0
  0
VERTEX
  8
LAYER1
 10
4.6667
 20
8.845
 30
0
 70
     0
  0
VERTEX
  8
LAYER1
 10
4.6667
 20
8.7617
 30
0
 70
     0
  0
VERTEX
  8
LAYER1
 10
4.5833
 20
8.6784
 30
0
 70
     0
  0
VERTEX
  8
LAYER1
 10
4.875
 20
8.6784
 30
0
 70
     0
  0
SEQEND
  0
LINE
  8
LAYER1
  6
CONTINUOUS
 62
     7
 10
4.6667
 20
8.7617
 30
0
 11
4.7917
 21
8.7617
 31
0
  0
ENDBLK
  8
LAYER1
  0
BLOCK
  8
LAYER1
  2
Group25
 70
     0
 10
0
 20
0
 30
0
  0
LINE
  8
LAYER1
  6
CONTINUOUS
 62
     7
 10
4.6667
 20
8.845
 30
0
 11
4.7917
 21
8.845
 31
0
  0
LINE
  8
LAYER1
  6
CONTINUOUS
 62
     7
 10
1.0972
 20
5.6784
 30
0
 11
1.0972
 21
5.595
 31
0
  0
LINE
  8
LAYER1
  6
CONTINUOUS
 62
     7
 10
5.1389
 20
5.6228
 30
0
 11
5.0833
 21
5.6784
 31
0
  0
LINE
  8
LAYER1
  6
CONTINUOUS
 62
     7
 10
5.0417
 20
5.595
 30
0
 11
4.9583
 21
5.6784
 31
0
  0
LINE
  8
LAYER1
  6
CONTINUOUS
 62
     7
 10
4.9028
 20
5.595
 30
0
 11
4.8194
 21
5.6784
 31
0
  0
LINE
  8
LAYER1
  6
CONTINUOUS
 62
     7
 10
4.7778
 20
5.595
 30
0
 11
4.6944
 21
5.6784
 31
0
  0
LINE
  8
LAYER1
  6
CONTINUOUS
 62
     7
 10
4.6389
 20
5.595
 30
0
 11
4.5556
 21
5.6784
 31
0
  0
LINE
  8
LAYER1
  6
CONTINUOUS
 62
     7
 10
4.5
 20
5.595
 30
0
 11
4.4167
 21
5.6784
 31
0
  0
LINE
  8
LAYER1
  6
CONTINUOUS
 62
     7
 10
4.375
 20
5.595
 30
0
 11
4.2917
 21
5.6784
 31
0
  0
LINE
  8
LAYER1
  6
CONTINUOUS
 62
     7
 10
4.2361
 20
5.595
 30
0
 11
4.1528
 21
5.6784
 31
0
  0
LINE
  8
LAYER1
  6
CONTINUOUS
 62
     7
 10
4.1111
 20
5.595
 30
0
 11
4.0278
 21
5.6784
 31
0
  0
LINE
  8
LAYER1
  6
CONTINUOUS
 62
     7
 10
3.9722
 20
5.595
 30
0
 11
3.8889
 21
5.6784
 31
0
  0
LINE
  8
LAYER1
  6
CONTINUOUS
 62
     7
 10
3.8472
 20
5.595
 30
0
 11
3.7639
 21
5.6784
 31
0
  0
LINE
  8
LAYER1
  6
CONTINUOUS
 62
     7
 10
3.7083
 20
5.595
 30
0
 11
3.625
 21
5.6784
 31
0
  0
LINE
  8
LAYER1
  6
CONTINUOUS
 62
     7
 10
3.5694
 20
5.595
 30
0
 11
3.4861
 21
5.6784
 31
0
  0
LINE
  8
LAYER1
  6
CONTINUOUS
 62
     7
 10
3.4444
 20
5.595
 30
0
 11
3.3611
 21
5.6784
 31
0
  0
LINE
  8
LAYER1
  6
CONTINUOUS
 62
     7
 10
3.3056
 20
5.595
 30
0
 11
3.2222
 21
5.6784
 31
0
  0
LINE
  8
LAYER1
  6
CONTINUOUS
 62
     7
 10
3.1806
 20
5.595
 30
0
 11
3.0972
 21
5.6784
 31
0
  0
LINE
  8
LAYER1
  6
CONTINUOUS
 62
     7
 10
3.0417
 20
5.595
 30
0
 11
2.9583
 21
5.6784
 31
0
  0
LINE
  8
LAYER1
  6
CONTINUOUS
 62
     7
 10
2.9167
 20
5.595
 30
0
 11
2.8333
 21
5.6784
 31
0
  0
LINE
  8
LAYER1
  6
CONTINUOUS
 62
     7
 10
2.7778
 20
5.595
 30
0
 11
2.6944
 21
5.6784
 31
0
  0
LINE
  8
LAYER1
  6
CONTINUOUS
 62
     7
 10
2.6528
 20
5.595
 30
0
 11
2.5694
 21
5.6784
 31
0
  0
LINE
  8
LAYER1
  6
CONTINUOUS
 62
     7
 10
2.5139
 20
5.595
 30
0
 11
2.4306
 21
5.6784
 31
0
  0
LINE
  8
LAYER1
  6
CONTINUOUS
 62
     7
 10
2.375
 20
5.595
 30
0
 11
2.2917
 21
5.6784
 31
0
  0
LINE
  8
LAYER1
  6
CONTINUOUS
 62
     7
 10
2.25
 20
5.595
 30
0
 11
2.1667
 21
5.6784
 31
0
  0
LINE
  8
LAYER1
  6
CONTINUOUS
 62
     7
 10
2.1111
 20
5.595
 30
0
 11
2.0278
 21
5.6784
 31
0
  0
LINE
  8
LAYER1
  6
CONTINUOUS
 62
     7
 10
1.9861
 20
5.595
 30
0
 11
1.9028
 21
5.6784
 31
0
  0
LINE
  8
LAYER1
  6
CONTINUOUS
 62
     7
 10
1.8472
 20
5.595
 30
0
 11
1.7639
 21
5.6784
 31
0
  0
LINE
  8
LAYER1
  6
CONTINUOUS
 62
     7
 10
1.7222
 20
5.595
 30
0
 11
1.6389
 21
5.6784
 31
0
  0
LINE
  8
LAYER1
  6
CONTINUOUS
 62
     7
 10
1.5833
 20
5.595
 30
0
 11
1.5
 21
5.6784
 31
0
  0
LINE
  8
LAYER1
  6
CONTINUOUS
 62
     7
 10
1.4583
 20
5.595
 30
0
 11
1.375
 21
5.6784
 31
0
  0
LINE
  8
LAYER1
  6
CONTINUOUS
 62
     7
 10
1.3194
 20
5.595
 30
0
 11
1.2361
 21
5.6784
 31
0
  0
LINE
  8
LAYER1
  6
CONTINUOUS
 62
     7
 10
1.1806
 20
5.595
 30
0
 11
1.0972
 21
5.6784
 31
0
  0
LINE
  8
LAYER1
  6
CONTINUOUS
 62
     7
 10
5.1389
 20
5.6645
 30
0
 11
5.125
 21
5.6784
 31
0
  0
LINE
  8
LAYER1
  6
CONTINUOUS
 62
     7
 10
5.0833
 20
5.595
 30
0
 11
5
 21
5.6784
 31
0
  0
LINE
  8
LAYER1
  6
CONTINUOUS
 62
     7
 10
4.9444
 20
5.595
 30
0
 11
4.8611
 21
5.6784
 31
0
  0
LINE
  8
LAYER1
  6
CONTINUOUS
 62
     7
 10
4.8194
 20
5.595
 30
0
 11
4.7361
 21
5.6784
 31
0
  0
LINE
  8
LAYER1
  6
CONTINUOUS
 62
     7
 10
4.6806
 20
5.595
 30
0
 11
4.5972
 21
5.6784
 31
0
  0
LINE
  8
LAYER1
  6
CONTINUOUS
 62
     7
 10
4.5556
 20
5.595
 30
0
 11
4.4722
 21
5.6784
 31
0
  0
LINE
  8
LAYER1
  6
CONTINUOUS
 62
     7
 10
4.4167
 20
5.595
 30
0
 11
4.3333
 21
5.6784
 31
0
  0
LINE
  8
LAYER1
  6
CONTINUOUS
 62
     7
 10
4.2778
 20
5.595
 30
0
 11
4.1944
 21
5.6784
 31
0
  0
LINE
  8
LAYER1
  6
CONTINUOUS
 62
     7
 10
4.1528
 20
5.595
 30
0
 11
4.0694
 21
5.6784
 31
0
  0
LINE
  8
LAYER1
  6
CONTINUOUS
 62
     7
 10
4.0139
 20
5.595
 30
0
 11
3.9306
 21
5.6784
 31
0
  0
LINE
  8
LAYER1
  6
CONTINUOUS
 62
     7
 10
3.8889
 20
5.595
 30
0
 11
3.8056
 21
5.6784
 31
0
  0
LINE
  8
LAYER1
  6
CONTINUOUS
 62
     7
 10
3.75
 20
5.595
 30
0
 11
3.6667
 21
5.6784
 31
0
  0
LINE
  8
LAYER1
  6
CONTINUOUS
 62
     7
 10
3.625
 20
5.595
 30
0
 11
3.5417
 21
5.6784
 31
0
  0
LINE
  8
LAYER1
  6
CONTINUOUS
 62
     7
 10
3.4861
 20
5.595
 30
0
 11
3.4028
 21
5.6784
 31
0
  0
LINE
  8
LAYER1
  6
CONTINUOUS
 62
     7
 10
3.3611
 20
5.595
 30
0
 11
3.2778
 21
5.6784
 31
0
  0
LINE
  8
LAYER1
  6
CONTINUOUS
 62
     7
 10
3.2222
 20
5.595
 30
0
 11
3.1389
 21
5.6784
 31
0
  0
LINE
  8
LAYER1
  6
CONTINUOUS
 62
     7
 10
3.0833
 20
5.595
 30
0
 11
3
 21
5.6784
 31
0
  0
LINE
  8
LAYER1
  6
CONTINUOUS
 62
     7
 10
2.9583
 20
5.595
 30
0
 11
2.875
 21
5.6784
 31
0
  0
LINE
  8
LAYER1
  6
CONTINUOUS
 62
     7
 10
2.8194
 20
5.595
 30
0
 11
2.7361
 21
5.6784
 31
0
  0
LINE
  8
LAYER1
  6
CONTINUOUS
 62
     7
 10
2.6944
 20
5.595
 30
0
 11
2.6111
 21
5.6784
 31
0
  0
LINE
  8
LAYER1
  6
CONTINUOUS
 62
     7
 10
2.5556
 20
5.595
 30
0
 11
2.4722
 21
5.6784
 31
0
  0
LINE
  8
LAYER1
  6
CONTINUOUS
 62
     7
 10
2.4306
 20
5.595
 30
0
 11
2.3472
 21
5.6784
 31
0
  0
LINE
  8
LAYER1
  6
CONTINUOUS
 62
     7
 10
2.2917
 20
5.595
 30
0
 11
2.2083
 21
5.6784
 31
0
  0
LINE
  8
LAYER1
  6
CONTINUOUS
 62
     7
 10
2.1528
 20
5.595
 30
0
 11
2.0694
 21
5.6784
 31
0
  0
LINE
  8
LAYER1
  6
CONTINUOUS
 62
     7
 10
2.0278
 20
5.595
 30
0
 11
1.9444
 21
5.6784
 31
0
  0
LINE
  8
LAYER1
  6
CONTINUOUS
 62
     7
 10
1.8889
 20
5.595
 30
0
 11
1.8056
 21
5.6784
 31
0
  0
LINE
  8
LAYER1
  6
CONTINUOUS
 62
     7
 10
1.7639
 20
5.595
 30
0
 11
1.6806
 21
5.6784
 31
0
  0
LINE
  8
LAYER1
  6
CONTINUOUS
 62
     7
 10
1.625
 20
5.595
 30
0
 11
1.5417
 21
5.6784
 31
0
  0
LINE
  8
LAYER1
  6
CONTINUOUS
 62
     7
 10
1.5
 20
5.595
 30
0
 11
1.4167
 21
5.6784
 31
0
  0
LINE
  8
LAYER1
  6
CONTINUOUS
 62
     7
 10
1.3611
 20
5.595
 30
0
 11
1.2778
 21
5.6784
 31
0
  0
LINE
  8
LAYER1
  6
CONTINUOUS
 62
     7
 10
1.2361
 20
5.595
 30
0
 11
1.1528
 21
5.6784
 31
0
  0
LINE
  8
LAYER1
  6
CONTINUOUS
 62
     7
 10
4.7222
 20
5.5117
 30
0
 11
4.8056
 21
5.595
 31
0
  0
LINE
  8
LAYER1
  6
CONTINUOUS
 62
     7
 10
4.5833
 20
5.5117
 30
0
 11
4.6667
 21
5.595
 31
0
  0
LINE
  8
LAYER1
  6
CONTINUOUS
 62
     7
 10
4.4583
 20
5.5117
 30
0
 11
4.5417
 21
5.595
 31
0
  0
LINE
  8
LAYER1
  6
CONTINUOUS
 62
     7
 10
4.3194
 20
5.5117
 30
0
 11
4.4028
 21
5.595
 31
0
  0
LINE
  8
LAYER1
  6
CONTINUOUS
 62
     7
 10
4.1944
 20
5.5117
 30
0
 11
4.2778
 21
5.595
 31
0
  0
LINE
  8
LAYER1
  6
CONTINUOUS
 62
     7
 10
4.0556
 20
5.5117
 30
0
 11
4.1389
 21
5.595
 31
0
  0
LINE
  8
LAYER1
  6
CONTINUOUS
 62
     7
 10
3.9306
 20
5.5117
 30
0
 11
4.0139
 21
5.595
 31
0
  0
LINE
  8
LAYER1
  6
CONTINUOUS
 62
     7
 10
3.7917
 20
5.5117
 30
0
 11
3.875
 21
5.595
 31
0
  0
LINE
  8
LAYER1
  6
CONTINUOUS
 62
     7
 10
3.6528
 20
5.5117
 30
0
 11
3.7361
 21
5.595
 31
0
  0
LINE
  8
LAYER1
  6
CONTINUOUS
 62
     7
 10
3.5278
 20
5.5117
 30
0
 11
3.6111
 21
5.595
 31
0
  0
LINE
  8
LAYER1
  6
CONTINUOUS
 62
     7
 10
3.3889
 20
5.5117
 30
0
 11
3.4722
 21
5.595
 31
0
  0
LINE
  8
LAYER1
  6
CONTINUOUS
 62
     7
 10
3.2639
 20
5.5117
 30
0
 11
3.3472
 21
5.595
 31
0
  0
LINE
  8
LAYER1
  6
CONTINUOUS
 62
     7
 10
3.125
 20
5.5117
 30
0
 11
3.2083
 21
5.595
 31
0
  0
LINE
  8
LAYER1
  6
CONTINUOUS
 62
     7
 10
3
 20
5.5117
 30
0
 11
3.0833
 21
5.595
 31
0
  0
LINE
  8
LAYER1
  6
CONTINUOUS
 62
     7
 10
2.8611
 20
5.5117
 30
0
 11
2.9444
 21
5.595
 31
0
  0
LINE
  8
LAYER1
  6
CONTINUOUS
 62
     7
 10
2.7222
 20
5.5117
 30
0
 11
2.8056
 21
5.595
 31
0
  0
LINE
  8
LAYER1
  6
CONTINUOUS
 62
     7
 10
2.5972
 20
5.5117
 30
0
 11
2.6806
 21
5.595
 31
0
  0
LINE
  8
LAYER1
  6
CONTINUOUS
 62
     7
 10
2.4583
 20
5.5117
 30
0
 11
2.5417
 21
5.595
 31
0
  0
LINE
  8
LAYER1
  6
CONTINUOUS
 62
     7
 10
2.3333
 20
5.5117
 30
0
 11
2.4167
 21
5.595
 31
0
  0
LINE
  8
LAYER1
  6
CONTINUOUS
 62
     7
 10
2.1944
 20
5.5117
 30
0
 11
2.2778
 21
5.595
 31
0
  0
LINE
  8
LAYER1
  6
CONTINUOUS
 62
     7
 10
2.0694
 20
5.5117
 30
0
 11
2.1528
 21
5.595
 31
0
  0
LINE
  8
LAYER1
  6
CONTINUOUS
 62
     7
 10
1.9306
 20
5.5117
 30
0
 11
2.0139
 21
5.595
 31
0
  0
LINE
  8
LAYER1
  6
CONTINUOUS
 62
     7
 10
1.8056
 20
5.5117
 30
0
 11
1.8889
 21
5.595
 31
0
  0
LINE
  8
LAYER1
  6
CONTINUOUS
 62
     7
 10
1.6667
 20
5.5117
 30
0
 11
1.75
 21
5.595
 31
0
  0
LINE
  8
LAYER1
  6
CONTINUOUS
 62
     7
 10
1.5278
 20
5.5117
 30
0
 11
1.6111
 21
5.595
 31
0
  0
LINE
  8
LAYER1
  6
CONTINUOUS
 62
     7
 10
1.4028
 20
5.5117
 30
0
 11
1.4861
 21
5.595
 31
0
  0
LINE
  8
LAYER1
  6
CONTINUOUS
 62
     7
 10
4.7639
 20
5.5117
 30
0
 11
4.8472
 21
5.595
 31
0
  0
LINE
  8
LAYER1
  6
CONTINUOUS
 62
     7
 10
4.625
 20
5.5117
 30
0
 11
4.7083
 21
5.595
 31
0
  0
LINE
  8
LAYER1
  6
CONTINUOUS
 62
     7
 10
4.5
 20
5.5117
 30
0
 11
4.5833
 21
5.595
 31
0
  0
LINE
  8
LAYER1
  6
CONTINUOUS
 62
     7
 10
4.3611
 20
5.5117
 30
0
 11
4.4444
 21
5.595
 31
0
  0
LINE
  8
LAYER1
  6
CONTINUOUS
 62
     7
 10
4.2361
 20
5.5117
 30
0
 11
4.3194
 21
5.595
 31
0
  0
LINE
  8
LAYER1
  6
CONTINUOUS
 62
     7
 10
4.0972
 20
5.5117
 30
0
 11
4.1806
 21
5.595
 31
0
  0
LINE
  8
LAYER1
  6
CONTINUOUS
 62
     7
 10
3.9722
 20
5.5117
 30
0
 11
4.0556
 21
5.595
 31
0
  0
LINE
  8
LAYER1
  6
CONTINUOUS
 62
     7
 10
3.8333
 20
5.5117
 30
0
 11
3.9167
 21
5.595
 31
0
  0
LINE
  8
LAYER1
  6
CONTINUOUS
 62
     7
 10
3.7083
 20
5.5117
 30
0
 11
3.7917
 21
5.595
 31
0
  0
LINE
  8
LAYER1
  6
CONTINUOUS
 62
     7
 10
3.5694
 20
5.5117
 30
0
 11
3.6528
 21
5.595
 31
0
  0
LINE
  8
LAYER1
  6
CONTINUOUS
 62
     7
 10
3.4306
 20
5.5117
 30
0
 11
3.5139
 21
5.595
 31
0
  0
LINE
  8
LAYER1
  6
CONTINUOUS
 62
     7
 10
3.3056
 20
5.5117
 30
0
 11
3.3889
 21
5.595
 31
0
  0
LINE
  8
LAYER1
  6
CONTINUOUS
 62
     7
 10
3.1667
 20
5.5117
 30
0
 11
3.25
 21
5.595
 31
0
  0
LINE
  8
LAYER1
  6
CONTINUOUS
 62
     7
 10
3.0417
 20
5.5117
 30
0
 11
3.125
 21
5.595
 31
0
  0
LINE
  8
LAYER1
  6
CONTINUOUS
 62
     7
 10
2.9028
 20
5.5117
 30
0
 11
2.9861
 21
5.595
 31
0
  0
LINE
  8
LAYER1
  6
CONTINUOUS
 62
     7
 10
2.7778
 20
5.5117
 30
0
 11
2.8611
 21
5.595
 31
0
  0
LINE
  8
LAYER1
  6
CONTINUOUS
 62
     7
 10
2.6389
 20
5.5117
 30
0
 11
2.7222
 21
5.595
 31
0
  0
LINE
  8
LAYER1
  6
CONTINUOUS
 62
     7
 10
2.5139
 20
5.5117
 30
0
 11
2.5972
 21
5.595
 31
0
  0
LINE
  8
LAYER1
  6
CONTINUOUS
 62
     7
 10
2.375
 20
5.5117
 30
0
 11
2.4583
 21
5.595
 31
0
  0
LINE
  8
LAYER1
  6
CONTINUOUS
 62
     7
 10
2.2361
 20
5.5117
 30
0
 11
2.3194
 21
5.595
 31
0
  0
LINE
  8
LAYER1
  6
CONTINUOUS
 62
     7
 10
2.1111
 20
5.5117
 30
0
 11
2.1944
 21
5.595
 31
0
  0
LINE
  8
LAYER1
  6
CONTINUOUS
 62
     7
 10
1.9722
 20
5.5117
 30
0
 11
2.0556
 21
5.595
 31
0
  0
LINE
  8
LAYER1
  6
CONTINUOUS
 62
     7
 10
1.8472
 20
5.5117
 30
0
 11
1.9306
 21
5.595
 31
0
  0
LINE
  8
LAYER1
  6
CONTINUOUS
 62
     7
 10
1.7083
 20
5.5117
 30
0
 11
1.7917
 21
5.595
 31
0
  0
LINE
  8
LAYER1
  6
CONTINUOUS
 62
     7
 10
1.5833
 20
5.5117
 30
0
 11
1.6667
 21
5.595
 31
0
  0
LINE
  8
LAYER1
  6
CONTINUOUS
 62
     7
 10
1.4444
 20
5.5117
 30
0
 11
1.5278
 21
5.595
 31
0
  0
LINE
  8
LAYER1
  6
CONTINUOUS
 62
     7
 10
4.6667
 20
5.6784
 30
0
 11
4.75
 21
5.7617
 31
0
  0
LINE
  8
LAYER1
  6
CONTINUOUS
 62
     7
 10
4.5278
 20
5.6784
 30
0
 11
4.6111
 21
5.7617
 31
0
  0
LINE
  8
LAYER1
  6
CONTINUOUS
 62
     7
 10
4.4028
 20
5.6784
 30
0
 11
4.4861
 21
5.7617
 31
0
  0
LINE
  8
LAYER1
  6
CONTINUOUS
 62
     7
 10
4.2639
 20
5.6784
 30
0
 11
4.3472
 21
5.7617
 31
0
  0
LINE
  8
LAYER1
  6
CONTINUOUS
 62
     7
 10
4.1389
 20
5.6784
 30
0
 11
4.2222
 21
5.7617
 31
0
  0
LINE
  8
LAYER1
  6
CONTINUOUS
 62
     7
 10
4
 20
5.6784
 30
0
 11
4.0833
 21
5.7617
 31
0
  0
LINE
  8
LAYER1
  6
CONTINUOUS
 62
     7
 10
3.875
 20
5.6784
 30
0
 11
3.9583
 21
5.7617
 31
0
  0
LINE
  8
LAYER1
  6
CONTINUOUS
 62
     7
 10
3.7361
 20
5.6784
 30
0
 11
3.8194
 21
5.7617
 31
0
  0
LINE
  8
LAYER1
  6
CONTINUOUS
 62
     7
 10
3.5972
 20
5.6784
 30
0
 11
3.6806
 21
5.7617
 31
0
  0
LINE
  8
LAYER1
  6
CONTINUOUS
 62
     7
 10
3.4722
 20
5.6784
 30
0
 11
3.5556
 21
5.7617
 31
0
  0
LINE
  8
LAYER1
  6
CONTINUOUS
 62
     7
 10
3.3333
 20
5.6784
 30
0
 11
3.4167
 21
5.7617
 31
0
  0
LINE
  8
LAYER1
  6
CONTINUOUS
 62
     7
 10
3.2083
 20
5.6784
 30
0
 11
3.2917
 21
5.7617
 31
0
  0
LINE
  8
LAYER1
  6
CONTINUOUS
 62
     7
 10
3.0694
 20
5.6784
 30
0
 11
3.1528
 21
5.7617
 31
0
  0
LINE
  8
LAYER1
  6
CONTINUOUS
 62
     7
 10
2.9444
 20
5.6784
 30
0
 11
3.0278
 21
5.7617
 31
0
  0
LINE
  8
LAYER1
  6
CONTINUOUS
 62
     7
 10
2.8056
 20
5.6784
 30
0
 11
2.8889
 21
5.7617
 31
0
  0
LINE
  8
LAYER1
  6
CONTINUOUS
 62
     7
 10
2.6806
 20
5.6784
 30
0
 11
2.7639
 21
5.7617
 31
0
  0
LINE
  8
LAYER1
  6
CONTINUOUS
 62
     7
 10
2.5417
 20
5.6784
 30
0
 11
2.625
 21
5.7617
 31
0
  0
LINE
  8
LAYER1
  6
CONTINUOUS
 62
     7
 10
2.4028
 20
5.6784
 30
0
 11
2.4861
 21
5.7617
 31
0
  0
LINE
  8
LAYER1
  6
CONTINUOUS
 62
     7
 10
2.2778
 20
5.6784
 30
0
 11
2.3611
 21
5.7617
 31
0
  0
LINE
  8
LAYER1
  6
CONTINUOUS
 62
     7
 10
2.1389
 20
5.6784
 30
0
 11
2.2222
 21
5.7617
 31
0
  0
LINE
  8
LAYER1
  6
CONTINUOUS
 62
     7
 10
2.0139
 20
5.6784
 30
0
 11
2.0972
 21
5.7617
 31
0
  0
LINE
  8
LAYER1
  6
CONTINUOUS
 62
     7
 10
1.875
 20
5.6784
 30
0
 11
1.9583
 21
5.7617
 31
0
  0
LINE
  8
LAYER1
  6
CONTINUOUS
 62
     7
 10
1.75
 20
5.6784
 30
0
 11
1.8333
 21
5.7617
 31
0
  0
LINE
  8
LAYER1
  6
CONTINUOUS
 62
     7
 10
1.6111
 20
5.6784
 30
0
 11
1.6944
 21
5.7617
 31
0
  0
LINE
  8
LAYER1
  6
CONTINUOUS
 62
     7
 10
1.4722
 20
5.6784
 30
0
 11
1.5556
 21
5.7617
 31
0
  0
LINE
  8
LAYER1
  6
CONTINUOUS
 62
     7
 10
1.3472
 20
5.6784
 30
0
 11
1.4306
 21
5.7617
 31
0
  0
LINE
  8
LAYER1
  6
CONTINUOUS
 62
     7
 10
4.7083
 20
5.6784
 30
0
 11
4.7917
 21
5.7617
 31
0
  0
LINE
  8
LAYER1
  6
CONTINUOUS
 62
     7
 10
4.5833
 20
5.6784
 30
0
 11
4.6667
 21
5.7617
 31
0
  0
LINE
  8
LAYER1
  6
CONTINUOUS
 62
     7
 10
4.4444
 20
5.6784
 30
0
 11
4.5278
 21
5.7617
 31
0
  0
LINE
  8
LAYER1
  6
CONTINUOUS
 62
     7
 10
4.3056
 20
5.6784
 30
0
 11
4.3889
 21
5.7617
 31
0
  0
LINE
  8
LAYER1
  6
CONTINUOUS
 62
     7
 10
4.1806
 20
5.6784
 30
0
 11
4.2639
 21
5.7617
 31
0
  0
LINE
  8
LAYER1
  6
CONTINUOUS
 62
     7
 10
4.0417
 20
5.6784
 30
0
 11
4.125
 21
5.7617
 31
0
  0
LINE
  8
LAYER1
  6
CONTINUOUS
 62
     7
 10
3.9167
 20
5.6784
 30
0
 11
4
 21
5.7617
 31
0
  0
LINE
  8
LAYER1
  6
CONTINUOUS
 62
     7
 10
3.7778
 20
5.6784
 30
0
 11
3.8611
 21
5.7617
 31
0
  0
LINE
  8
LAYER1
  6
CONTINUOUS
 62
     7
 10
3.6528
 20
5.6784
 30
0
 11
3.7361
 21
5.7617
 31
0
  0
LINE
  8
LAYER1
  6
CONTINUOUS
 62
     7
 10
3.5139
 20
5.6784
 30
0
 11
3.5972
 21
5.7617
 31
0
  0
LINE
  8
LAYER1
  6
CONTINUOUS
 62
     7
 10
3.375
 20
5.6784
 30
0
 11
3.4583
 21
5.7617
 31
0
  0
LINE
  8
LAYER1
  6
CONTINUOUS
 62
     7
 10
3.25
 20
5.6784
 30
0
 11
3.3333
 21
5.7617
 31
0
  0
LINE
  8
LAYER1
  6
CONTINUOUS
 62
     7
 10
3.1111
 20
5.6784
 30
0
 11
3.1944
 21
5.7617
 31
0
  0
LINE
  8
LAYER1
  6
CONTINUOUS
 62
     7
 10
2.9861
 20
5.6784
 30
0
 11
3.0694
 21
5.7617
 31
0
  0
LINE
  8
LAYER1
  6
CONTINUOUS
 62
     7
 10
2.8472
 20
5.6784
 30
0
 11
2.9306
 21
5.7617
 31
0
  0
LINE
  8
LAYER1
  6
CONTINUOUS
 62
     7
 10
2.7222
 20
5.6784
 30
0
 11
2.8056
 21
5.7617
 31
0
  0
LINE
  8
LAYER1
  6
CONTINUOUS
 62
     7
 10
2.5833
 20
5.6784
 30
0
 11
2.6667
 21
5.7617
 31
0
  0
LINE
  8
LAYER1
  6
CONTINUOUS
 62
     7
 10
2.4583
 20
5.6784
 30
0
 11
2.5417
 21
5.7617
 31
0
  0
LINE
  8
LAYER1
  6
CONTINUOUS
 62
     7
 10
2.3194
 20
5.6784
 30
0
 11
2.4028
 21
5.7617
 31
0
  0
LINE
  8
LAYER1
  6
CONTINUOUS
 62
     7
 10
2.1806
 20
5.6784
 30
0
 11
2.2639
 21
5.7617
 31
0
  0
LINE
  8
LAYER1
  6
CONTINUOUS
 62
     7
 10
2.0556
 20
5.6784
 30
0
 11
2.1389
 21
5.7617
 31
0
  0
LINE
  8
LAYER1
  6
CONTINUOUS
 62
     7
 10
1.9167
 20
5.6784
 30
0
 11
2
 21
5.7617
 31
0
  0
LINE
  8
LAYER1
  6
CONTINUOUS
 62
     7
 10
1.7917
 20
5.6784
 30
0
 11
1.875
 21
5.7617
 31
0
  0
LINE
  8
LAYER1
  6
CONTINUOUS
 62
     7
 10
1.6528
 20
5.6784
 30
0
 11
1.7361
 21
5.7617
 31
0
  0
LINE
  8
LAYER1
  6
CONTINUOUS
 62
     7
 10
1.5278
 20
5.6784
 30
0
 11
1.6111
 21
5.7617
 31
0
  0
LINE
  8
LAYER1
  6
CONTINUOUS
 62
     7
 10
1.3889
 20
5.6784
 30
0
 11
1.4722
 21
5.7617
 31
0
  0
LINE
  8
LAYER1
  6
CONTINUOUS
 62
     7
 10
1.3194
 20
5.5673
 30
0
 11
1.3472
 21
5.595
 31
0
  0
LINE
  8
LAYER1
  6
CONTINUOUS
 62
     7
 10
1.3194
 20
5.5256
 30
0
 11
1.3889
 21
5.595
 31
0
  0
LINE
  8
LAYER1
  6
CONTINUOUS
 62
     7
 10
1.3194
 20
5.595
 30
0
 11
1.3194
 21
5.5117
 31
0
  0
LINE
  8
LAYER1
  6
CONTINUOUS
 62
     7
 10
1.3194
 20
5.7617
 30
0
 11
1.3194
 21
5.6784
 31
0
  0
LINE
  8
LAYER1
  6
CONTINUOUS
 62
     7
 10
1.3194
 20
5.7617
 30
0
 11
4.875
 21
5.7617
 31
0
  0
LINE
  8
LAYER1
  6
CONTINUOUS
 62
     7
 10
1.3194
 20
5.5117
 30
0
 11
4.875
 21
5.5117
 31
0
  0
LINE
  8
LAYER1
  6
CONTINUOUS
 62
     7
 10
4.8056
 20
5.6784
 30
0
 11
4.875
 21
5.7617
 31
0
  0
LINE
  8
LAYER1
  6
CONTINUOUS
 62
     7
 10
4.8472
 20
5.6784
 30
0
 11
4.875
 21
5.72
 31
0
  0
LINE
  8
LAYER1
  6
CONTINUOUS
 62
     7
 10
4.8472
 20
5.5117
 30
0
 11
4.875
 21
5.5395
 31
0
  0
LINE
  8
LAYER1
  6
CONTINUOUS
 62
     7
 10
4.875
 20
5.5117
 30
0
 11
4.875
 21
5.595
 31
0
  0
LINE
  8
LAYER1
  6
CONTINUOUS
 62
     7
 10
4.875
 20
5.7617
 30
0
 11
4.875
 21
5.6784
 31
0
  0
LINE
  8
LAYER1
  6
CONTINUOUS
 62
     7
 10
1.0972
 20
5.595
 30
0
 11
5.1389
 21
5.595
 31
0
  0
LINE
  8
LAYER1
  6
CONTINUOUS
 62
     7
 10
1.0972
 20
5.6784
 30
0
 11
5.1389
 21
5.6784
 31
0
  0
ENDBLK
  8
LAYER1
  0
BLOCK
  8
LAYER1
  2
Group26
 70
     0
 10
0
 20
0
 30
0
  0
LINE
  8
LAYER1
  6
CONTINUOUS
 62
     7
 10
5.1389
 20
5.595
 30
0
 11
5.1389
 21
5.6784
 31
0
  0
CIRCLE
  8
LAYER1
 10
1.7431
 20
6.2548
 30
0
 40
0.1319
  0
LINE
  8
LAYER1
  6
CONTINUOUS
 62
     7
 10
1.5556
 20
6.0812
 30
0
 11
1.6528
 21
6.1784
 31
0
  0
ENDBLK
  8
LAYER1
  0
BLOCK
  8
LAYER1
  2
Group27
 70
     0
 10
0
 20
0
 30
0
  0
LINE
  8
LAYER1
  6
CONTINUOUS
 62
     7
 10
1.8333
 20
6.345
 30
0
 11
1.9306
 21
6.4423
 31
0
  0
POLYLINE
  8
LAYER1
  6
CONTINUOUS
 62
     7
 66
     1
 70
     0
 40
0.0039
 41
0.0039
  0
VERTEX
  8
LAYER1
 10
1.875
 20
5.5048
 30
0
 70
     0
  0
VERTEX
  8
LAYER1
 10
1.8723
 20
5.4783
 30
0
 70
     0
  0
VERTEX
  8
LAYER1
 10
1.8646
 20
5.4536
 30
0
 70
     0
  0
VERTEX
  8
LAYER1
 10
1.8523
 20
5.4312
 30
0
 70
     0
  0
VERTEX
  8
LAYER1
 10
1.8362
 20
5.4117
 30
0
 70
     0
  0
VERTEX
  8
LAYER1
 10
1.8166
 20
5.3955
 30
0
 70
     0
  0
VERTEX
  8
LAYER1
 10
1.7942
 20
5.3833
 30
0
 70
     0
  0
VERTEX
  8
LAYER1
 10
1.7695
 20
5.3755
 30
0
 70
     0
  0
VERTEX
  8
LAYER1
 10
1.7431
 20
5.3728
 30
0
 70
     0
  0
VERTEX
  8
LAYER1
 10
1.7431
 20
5.3728
 30
0
 70
     0
  0
VERTEX
  8
LAYER1
 10
1.7166
 20
5.3755
 30
0
 70
     0
  0
VERTEX
  8
LAYER1
 10
1.6919
 20
5.3833
 30
0
 70
     0
  0
VERTEX
  8
LAYER1
 10
1.6695
 20
5.3955
 30
0
 70
     0
  0
VERTEX
  8
LAYER1
 10
1.6499
 20
5.4117
 30
0
 70
     0
  0
VERTEX
  8
LAYER1
 10
1.6338
 20
5.4312
 30
0
 70
     0
  0
VERTEX
  8
LAYER1
 10
1.6215
 20
5.4536
 30
0
 70
     0
  0
VERTEX
  8
LAYER1
 10
1.6138
 20
5.4783
 30
0
 70
     0
  0
VERTEX
  8
LAYER1
 10
1.6111
 20
5.5048
 30
0
 70
     0
  0
SEQEND
  0
ENDBLK
  8
LAYER1
  0
BLOCK
  8
LAYER1
  2
Group28
 70
     0
 10
0
 20
0
 30
0
  0
LINE
  8
LAYER1
  6
CONTINUOUS
 62
     7
 10
1.6111
 20
5.5117
 30
0
 11
1.8611
 21
5.5117
 31
0
  0
POLYLINE
  8
LAYER1
  6
CONTINUOUS
 62
     7
 66
     1
 70
     0
 40
0.0039
 41
0.0039
  0
VERTEX
  8
LAYER1
 10
1.5972
 20
5.7617
 30
0
 70
     0
  0
VERTEX
  8
LAYER1
 10
1.6806
 20
5.6784
 30
0
 70
     0
  0
VERTEX
  8
LAYER1
 10
1.6806
 20
5.5117
 30
0
 70
     0
  0
VERTEX
  8
LAYER1
 10
1.8056
 20
5.5117
 30
0
 70
     0
  0
VERTEX
  8
LAYER1
 10
1.8056
 20
5.6784
 30
0
 70
     0
  0
VERTEX
  8
LAYER1
 10
1.8889
 20
5.7617
 30
0
 70
     0
  0
VERTEX
  8
LAYER1
 10
1.5972
 20
5.7617
 30
0
 70
     0
  0
SEQEND
  0
ENDBLK
  8
LAYER1
  0
BLOCK
  8
LAYER1
  2
Group29
 70
     0
 10
0
 20
0
 30
0
  0
INSERT
  8
LAYER1
  2
Group27
 10
0
 20
0
 30
0
  0
INSERT
  8
LAYER1
  2
Group28
 10
0
 20
0
 30
0
  0
ENDBLK
  8
LAYER1
  0
BLOCK
  8
LAYER1
  2
Group30
 70
     0
 10
0
 20
0
 30
0
  0
INSERT
  8
LAYER1
  2
Group29
 10
0
 20
0
 30
0
  0
LINE
  8
LAYER1
  6
CONTINUOUS
 62
     7
 10
1.6806
 20
5.6784
 30
0
 11
1.8056
 21
5.6784
 31
0
  0
POLYLINE
  8
LAYER1
  6
CONTINUOUS
 62
     7
 66
     1
 70
     0
 40
0.0039
 41
0.0039
  0
VERTEX
  8
LAYER1
 10
1.5972
 20
5.8173
 30
0
 70
     0
  0
VERTEX
  8
LAYER1
 10
1.9028
 20
5.8173
 30
0
 70
     0
  0
VERTEX
  8
LAYER1
 10
1.9028
 20
5.7617
 30
0
 70
     0
  0
VERTEX
  8
LAYER1
 10
1.5972
 20
5.7617
 30
0
 70
     0
  0
VERTEX
  8
LAYER1
 10
1.5972
 20
5.8173
 30
0
 70
     0
  0
SEQEND
  0
ENDBLK
  8
LAYER1
  0
BLOCK
  8
LAYER1
  2
Group31
 70
     0
 10
0
 20
0
 30
0
  0
CIRCLE
  8
LAYER1
 10
2.9792
 20
6.2548
 30
0
 40
0.1319
  0
ENDBLK
  8
LAYER1
  0
BLOCK
  8
LAYER1
  2
Group32
 70
     0
 10
0
 20
0
 30
0
  0
LINE
  8
LAYER1
  6
CONTINUOUS
 62
     7
 10
3.125
 20
5.4562
 30
0
 11
2.8333
 21
5.4562
 31
0
  0
POLYLINE
  8
LAYER1
  6
CONTINUOUS
 62
     7
 66
     1
 70
     0
 40
0.0039
 41
0.0039
  0
VERTEX
  8
LAYER1
 10
2.8472
 20
5.7548
 30
0
 70
     0
  0
VERTEX
  8
LAYER1
 10
2.8499
 20
5.7812
 30
0
 70
     0
  0
VERTEX
  8
LAYER1
 10
2.8577
 20
5.8059
 30
0
 70
     0
  0
VERTEX
  8
LAYER1
 10
2.8699
 20
5.8283
 30
0
 70
     0
  0
VERTEX
  8
LAYER1
 10
2.886
 20
5.8479
 30
0
 70
     0
  0
VERTEX
  8
LAYER1
 10
2.9056
 20
5.8641
 30
0
 70
     0
  0
VERTEX
  8
LAYER1
 10
2.928
 20
5.8763
 30
0
 70
     0
  0
VERTEX
  8
LAYER1
 10
2.9527
 20
5.884
 30
0
 70
     0
  0
VERTEX
  8
LAYER1
 10
2.9792
 20
5.8867
 30
0
 70
     0
  0
VERTEX
  8
LAYER1
 10
2.9792
 20
5.8867
 30
0
 70
     0
  0
VERTEX
  8
LAYER1
 10
3.0056
 20
5.884
 30
0
 70
     0
  0
VERTEX
  8
LAYER1
 10
3.0303
 20
5.8763
 30
0
 70
     0
  0
VERTEX
  8
LAYER1
 10
3.0527
 20
5.8641
 30
0
 70
     0
  0
VERTEX
  8
LAYER1
 10
3.0723
 20
5.8479
 30
0
 70
     0
  0
VERTEX
  8
LAYER1
 10
3.0884
 20
5.8283
 30
0
 70
     0
  0
VERTEX
  8
LAYER1
 10
3.1007
 20
5.8059
 30
0
 70
     0
  0
VERTEX
  8
LAYER1
 10
3.1084
 20
5.7812
 30
0
 70
     0
  0
VERTEX
  8
LAYER1
 10
3.1111
 20
5.7548
 30
0
 70
     0
  0
SEQEND
  0
ENDBLK
  8
LAYER1
  0
BLOCK
  8
LAYER1
  2
Group33
 70
     0
 10
0
 20
0
 30
0
  0
LINE
  8
LAYER1
  6
CONTINUOUS
 62
     7
 10
2.8472
 20
5.7617
 30
0
 11
3.0972
 21
5.7617
 31
0
  0
POLYLINE
  8
LAYER1
  6
CONTINUOUS
 62
     7
 66
     1
 70
     0
 40
0.0039
 41
0.0039
  0
VERTEX
  8
LAYER1
 10
2.8333
 20
5.5117
 30
0
 70
     0
  0
VERTEX
  8
LAYER1
 10
2.9167
 20
5.595
 30
0
 70
     0
  0
VERTEX
  8
LAYER1
 10
2.9167
 20
5.7617
 30
0
 70
     0
  0
VERTEX
  8
LAYER1
 10
3.0417
 20
5.7617
 30
0
 70
     0
  0
VERTEX
  8
LAYER1
 10
3.0417
 20
5.595
 30
0
 70
     0
  0
VERTEX
  8
LAYER1
 10
3.125
 20
5.5117
 30
0
 70
     0
  0
VERTEX
  8
LAYER1
 10
2.8333
 20
5.5117
 30
0
 70
     0
  0
SEQEND
  0
ENDBLK
  8
LAYER1
  0
BLOCK
  8
LAYER1
  2
Group34
 70
     0
 10
0
 20
0
 30
0
  0
INSERT
  8
LAYER1
  2
Group32
 10
0
 20
0
 30
0
  0
INSERT
  8
LAYER1
  2
Group33
 10
0
 20
0
 30
0
  0
ENDBLK
  8
LAYER1
  0
BLOCK
  8
LAYER1
  2
Group35
 70
     0
 10
0
 20
0
 30
0
  0
INSERT
  8
LAYER1
  2
Group34
 10
0
 20
0
 30
0
  0
LINE
  8
LAYER1
  6
CONTINUOUS
 62
     7
 10
2.9167
 20
5.595
 30
0
 11
3.0417
 21
5.595
 31
0
  0
POLYLINE
  8
LAYER1
  6
CONTINUOUS
 62
     7
 66
     1
 70
     0
 40
0.0039
 41
0.0039
  0
VERTEX
  8
LAYER1
 10
2.8333
 20
5.5117
 30
0
 70
     0
  0
VERTEX
  8
LAYER1
 10
3.1389
 20
5.5117
 30
0
 70
     0
  0
VERTEX
  8
LAYER1
 10
3.1389
 20
5.4423
 30
0
 70
     0
  0
VERTEX
  8
LAYER1
 10
2.8333
 20
5.4423
 30
0
 70
     0
  0
VERTEX
  8
LAYER1
 10
2.8333
 20
5.5117
 30
0
 70
     0
  0
SEQEND
  0
ENDBLK
  8
LAYER1
  0
BLOCK
  8
LAYER1
  2
Group36
 70
     0
 10
0
 20
0
 30
0
  0
LINE
  8
LAYER1
  6
CONTINUOUS
 62
     7
 10
2.875
 20
6.1784
 30
0
 11
3.0694
 21
6.345
 31
0
  0
INSERT
  8
LAYER1
  2
Group35
 10
0
 20
0
 30
0
  0
ENDBLK
  8
LAYER1
  0
BLOCK
  8
LAYER1
  2
Group37
 70
     0
 10
0
 20
0
 30
0
  0
CIRCLE
  8
LAYER1
 10
4.2292
 20
6.2548
 30
0
 40
0.1319
  0
ENDBLK
  8
LAYER1
  0
BLOCK
  8
LAYER1
  2
Group38
 70
     0
 10
0
 20
0
 30
0
  0
LINE
  8
LAYER1
  6
CONTINUOUS
 62
     7
 10
4.0278
 20
6.0673
 30
0
 11
4.4028
 21
6.4562
 31
0
  0
POLYLINE
  8
LAYER1
  6
CONTINUOUS
 62
     7
 66
     1
 70
     0
 40
0.0039
 41
0.0039
  0
VERTEX
  8
LAYER1
 10
4.3611
 20
5.5117
 30
0
 70
     0
  0
VERTEX
  8
LAYER1
 10
4.2778
 20
5.595
 30
0
 70
     0
  0
VERTEX
  8
LAYER1
 10
4.2778
 20
5.6784
 30
0
 70
     0
  0
VERTEX
  8
LAYER1
 10
4.3611
 20
5.7617
 30
0
 70
     0
  0
VERTEX
  8
LAYER1
 10
4.0694
 20
5.7617
 30
0
 70
     0
  0
VERTEX
  8
LAYER1
 10
4.1528
 20
5.6784
 30
0
 70
     0
  0
VERTEX
  8
LAYER1
 10
4.1528
 20
5.595
 30
0
 70
     0
  0
VERTEX
  8
LAYER1
 10
4.0694
 20
5.5117
 30
0
 70
     0
  0
VERTEX
  8
LAYER1
 10
4.3611
 20
5.5117
 30
0
 70
     0
  0
SEQEND
  0
LINE
  8
LAYER1
  6
CONTINUOUS
 62
     7
 10
4.1528
 20
5.595
 30
0
 11
4.2778
 21
5.595
 31
0
  0
ENDBLK
  8
LAYER1
  0
BLOCK
  8
LAYER1
  2
Group39
 70
     0
 10
0
 20
0
 30
0
  0
INSERT
  8
LAYER1
  2
Group38
 10
0
 20
0
 30
0
  0
LINE
  8
LAYER1
  6
CONTINUOUS
 62
     7
 10
4.1528
 20
5.6784
 30
0
 11
4.2778
 21
5.6784
 31
0
  0
POLYLINE
  8
LAYER1
  6
CONTINUOUS
 62
     7
 66
     1
 70
     0
 40
0.0039
 41
0.0039
  0
VERTEX
  8
LAYER1
 10
4.0694
 20
5.8173
 30
0
 70
     0
  0
VERTEX
  8
LAYER1
 10
4.375
 20
5.8173
 30
0
 70
     0
  0
VERTEX
  8
LAYER1
 10
4.375
 20
5.7617
 30
0
 70
     0
  0
VERTEX
  8
LAYER1
 10
4.0694
 20
5.7617
 30
0
 70
     0
  0
VERTEX
  8
LAYER1
 10
4.0694
 20
5.8173
 30
0
 70
     0
  0
SEQEND
  0
POLYLINE
  8
LAYER1
  6
CONTINUOUS
 62
     7
 66
     1
 70
     0
 40
0.0039
 41
0.0039
  0
VERTEX
  8
LAYER1
 10
4.0694
 20
5.5117
 30
0
 70
     0
  0
VERTEX
  8
LAYER1
 10
4.375
 20
5.5117
 30
0
 70
     0
  0
VERTEX
  8
LAYER1
 10
4.375
 20
5.4423
 30
0
 70
     0
  0
VERTEX
  8
LAYER1
 10
4.0694
 20
5.4423
 30
0
 70
     0
  0
VERTEX
  8
LAYER1
 10
4.0694
 20
5.5117
 30
0
 70
     0
  0
SEQEND
  0
ENDBLK
  8
LAYER1
  0
BLOCK
  8
LAYER1
  2
Group40
 70
     0
 10
0
 20
0
 30
0
  0
LINE
  8
LAYER1
  6
CONTINUOUS
 62
     7
 10
1.0278
 20
2.3034
 30
0
 11
1.0278
 21
2.22
 31
0
  0
LINE
  8
LAYER1
  6
CONTINUOUS
 62
     7
 10
5.0694
 20
2.2478
 30
0
 11
5.0139
 21
2.3034
 31
0
  0
LINE
  8
LAYER1
  6
CONTINUOUS
 62
     7
 10
4.9722
 20
2.22
 30
0
 11
4.8889
 21
2.3034
 31
0
  0
LINE
  8
LAYER1
  6
CONTINUOUS
 62
     7
 10
4.8333
 20
2.22
 30
0
 11
4.75
 21
2.3034
 31
0
  0
LINE
  8
LAYER1
  6
CONTINUOUS
 62
     7
 10
4.7083
 20
2.22
 30
0
 11
4.625
 21
2.3034
 31
0
  0
LINE
  8
LAYER1
  6
CONTINUOUS
 62
     7
 10
4.5694
 20
2.22
 30
0
 11
4.4861
 21
2.3034
 31
0
  0
LINE
  8
LAYER1
  6
CONTINUOUS
 62
     7
 10
4.4444
 20
2.22
 30
0
 11
4.3611
 21
2.3034
 31
0
  0
LINE
  8
LAYER1
  6
CONTINUOUS
 62
     7
 10
4.3056
 20
2.22
 30
0
 11
4.2222
 21
2.3034
 31
0
  0
LINE
  8
LAYER1
  6
CONTINUOUS
 62
     7
 10
4.1667
 20
2.22
 30
0
 11
4.0833
 21
2.3034
 31
0
  0
LINE
  8
LAYER1
  6
CONTINUOUS
 62
     7
 10
4.0417
 20
2.22
 30
0
 11
3.9583
 21
2.3034
 31
0
  0
LINE
  8
LAYER1
  6
CONTINUOUS
 62
     7
 10
3.9028
 20
2.22
 30
0
 11
3.8194
 21
2.3034
 31
0
  0
LINE
  8
LAYER1
  6
CONTINUOUS
 62
     7
 10
3.7778
 20
2.22
 30
0
 11
3.6944
 21
2.3034
 31
0
  0
LINE
  8
LAYER1
  6
CONTINUOUS
 62
     7
 10
3.6389
 20
2.22
 30
0
 11
3.5556
 21
2.3034
 31
0
  0
LINE
  8
LAYER1
  6
CONTINUOUS
 62
     7
 10
3.5139
 20
2.22
 30
0
 11
3.4306
 21
2.3034
 31
0
  0
LINE
  8
LAYER1
  6
CONTINUOUS
 62
     7
 10
3.375
 20
2.22
 30
0
 11
3.2917
 21
2.3034
 31
0
  0
LINE
  8
LAYER1
  6
CONTINUOUS
 62
     7
 10
3.2361
 20
2.22
 30
0
 11
3.1528
 21
2.3034
 31
0
  0
LINE
  8
LAYER1
  6
CONTINUOUS
 62
     7
 10
3.1111
 20
2.22
 30
0
 11
3.0278
 21
2.3034
 31
0
  0
LINE
  8
LAYER1
  6
CONTINUOUS
 62
     7
 10
2.9722
 20
2.22
 30
0
 11
2.8889
 21
2.3034
 31
0
  0
LINE
  8
LAYER1
  6
CONTINUOUS
 62
     7
 10
2.8472
 20
2.22
 30
0
 11
2.7639
 21
2.3034
 31
0
  0
LINE
  8
LAYER1
  6
CONTINUOUS
 62
     7
 10
2.7083
 20
2.22
 30
0
 11
2.625
 21
2.3034
 31
0
  0
LINE
  8
LAYER1
  6
CONTINUOUS
 62
     7
 10
2.5833
 20
2.22
 30
0
 11
2.5
 21
2.3034
 31
0
  0
LINE
  8
LAYER1
  6
CONTINUOUS
 62
     7
 10
2.4444
 20
2.22
 30
0
 11
2.3611
 21
2.3034
 31
0
  0
LINE
  8
LAYER1
  6
CONTINUOUS
 62
     7
 10
2.3194
 20
2.22
 30
0
 11
2.2361
 21
2.3034
 31
0
  0
LINE
  8
LAYER1
  6
CONTINUOUS
 62
     7
 10
2.1806
 20
2.22
 30
0
 11
2.0972
 21
2.3034
 31
0
  0
LINE
  8
LAYER1
  6
CONTINUOUS
 62
     7
 10
2.0417
 20
2.22
 30
0
 11
1.9583
 21
2.3034
 31
0
  0
LINE
  8
LAYER1
  6
CONTINUOUS
 62
     7
 10
1.9167
 20
2.22
 30
0
 11
1.8333
 21
2.3034
 31
0
  0
LINE
  8
LAYER1
  6
CONTINUOUS
 62
     7
 10
1.7778
 20
2.22
 30
0
 11
1.6944
 21
2.3034
 31
0
  0
LINE
  8
LAYER1
  6
CONTINUOUS
 62
     7
 10
1.6528
 20
2.22
 30
0
 11
1.5694
 21
2.3034
 31
0
  0
LINE
  8
LAYER1
  6
CONTINUOUS
 62
     7
 10
1.5139
 20
2.22
 30
0
 11
1.4306
 21
2.3034
 31
0
  0
LINE
  8
LAYER1
  6
CONTINUOUS
 62
     7
 10
1.3889
 20
2.22
 30
0
 11
1.3056
 21
2.3034
 31
0
  0
LINE
  8
LAYER1
  6
CONTINUOUS
 62
     7
 10
1.25
 20
2.22
 30
0
 11
1.1667
 21
2.3034
 31
0
  0
LINE
  8
LAYER1
  6
CONTINUOUS
 62
     7
 10
1.1111
 20
2.22
 30
0
 11
1.0278
 21
2.3034
 31
0
  0
LINE
  8
LAYER1
  6
CONTINUOUS
 62
     7
 10
5.0694
 20
2.2895
 30
0
 11
5.0556
 21
2.3034
 31
0
  0
LINE
  8
LAYER1
  6
CONTINUOUS
 62
     7
 10
5.0139
 20
2.22
 30
0
 11
4.9306
 21
2.3034
 31
0
  0
LINE
  8
LAYER1
  6
CONTINUOUS
 62
     7
 10
4.875
 20
2.22
 30
0
 11
4.7917
 21
2.3034
 31
0
  0
LINE
  8
LAYER1
  6
CONTINUOUS
 62
     7
 10
4.75
 20
2.22
 30
0
 11
4.6667
 21
2.3034
 31
0
  0
LINE
  8
LAYER1
  6
CONTINUOUS
 62
     7
 10
4.6111
 20
2.22
 30
0
 11
4.5278
 21
2.3034
 31
0
  0
LINE
  8
LAYER1
  6
CONTINUOUS
 62
     7
 10
4.4861
 20
2.22
 30
0
 11
4.4028
 21
2.3034
 31
0
  0
LINE
  8
LAYER1
  6
CONTINUOUS
 62
     7
 10
4.3472
 20
2.22
 30
0
 11
4.2639
 21
2.3034
 31
0
  0
LINE
  8
LAYER1
  6
CONTINUOUS
 62
     7
 10
4.2222
 20
2.22
 30
0
 11
4.1389
 21
2.3034
 31
0
  0
LINE
  8
LAYER1
  6
CONTINUOUS
 62
     7
 10
4.0833
 20
2.22
 30
0
 11
4
 21
2.3034
 31
0
  0
LINE
  8
LAYER1
  6
CONTINUOUS
 62
     7
 10
3.9444
 20
2.22
 30
0
 11
3.8611
 21
2.3034
 31
0
  0
LINE
  8
LAYER1
  6
CONTINUOUS
 62
     7
 10
3.8194
 20
2.22
 30
0
 11
3.7361
 21
2.3034
 31
0
  0
LINE
  8
LAYER1
  6
CONTINUOUS
 62
     7
 10
3.6806
 20
2.22
 30
0
 11
3.5972
 21
2.3034
 31
0
  0
LINE
  8
LAYER1
  6
CONTINUOUS
 62
     7
 10
3.5556
 20
2.22
 30
0
 11
3.4722
 21
2.3034
 31
0
  0
LINE
  8
LAYER1
  6
CONTINUOUS
 62
     7
 10
3.4167
 20
2.22
 30
0
 11
3.3333
 21
2.3034
 31
0
  0
LINE
  8
LAYER1
  6
CONTINUOUS
 62
     7
 10
3.2917
 20
2.22
 30
0
 11
3.2083
 21
2.3034
 31
0
  0
LINE
  8
LAYER1
  6
CONTINUOUS
 62
     7
 10
3.1528
 20
2.22
 30
0
 11
3.0694
 21
2.3034
 31
0
  0
LINE
  8
LAYER1
  6
CONTINUOUS
 62
     7
 10
3.0278
 20
2.22
 30
0
 11
2.9444
 21
2.3034
 31
0
  0
LINE
  8
LAYER1
  6
CONTINUOUS
 62
     7
 10
2.8889
 20
2.22
 30
0
 11
2.8056
 21
2.3034
 31
0
  0
LINE
  8
LAYER1
  6
CONTINUOUS
 62
     7
 10
2.75
 20
2.22
 30
0
 11
2.6667
 21
2.3034
 31
0
  0
LINE
  8
LAYER1
  6
CONTINUOUS
 62
     7
 10
2.625
 20
2.22
 30
0
 11
2.5417
 21
2.3034
 31
0
  0
LINE
  8
LAYER1
  6
CONTINUOUS
 62
     7
 10
2.4861
 20
2.22
 30
0
 11
2.4028
 21
2.3034
 31
0
  0
LINE
  8
LAYER1
  6
CONTINUOUS
 62
     7
 10
2.3611
 20
2.22
 30
0
 11
2.2778
 21
2.3034
 31
0
  0
LINE
  8
LAYER1
  6
CONTINUOUS
 62
     7
 10
2.2222
 20
2.22
 30
0
 11
2.1389
 21
2.3034
 31
0
  0
LINE
  8
LAYER1
  6
CONTINUOUS
 62
     7
 10
2.0972
 20
2.22
 30
0
 11
2.0139
 21
2.3034
 31
0
  0
LINE
  8
LAYER1
  6
CONTINUOUS
 62
     7
 10
1.9583
 20
2.22
 30
0
 11
1.875
 21
2.3034
 31
0
  0
LINE
  8
LAYER1
  6
CONTINUOUS
 62
     7
 10
1.8194
 20
2.22
 30
0
 11
1.7361
 21
2.3034
 31
0
  0
LINE
  8
LAYER1
  6
CONTINUOUS
 62
     7
 10
1.6944
 20
2.22
 30
0
 11
1.6111
 21
2.3034
 31
0
  0
LINE
  8
LAYER1
  6
CONTINUOUS
 62
     7
 10
1.5556
 20
2.22
 30
0
 11
1.4722
 21
2.3034
 31
0
  0
LINE
  8
LAYER1
  6
CONTINUOUS
 62
     7
 10
1.4306
 20
2.22
 30
0
 11
1.3472
 21
2.3034
 31
0
  0
LINE
  8
LAYER1
  6
CONTINUOUS
 62
     7
 10
1.2917
 20
2.22
 30
0
 11
1.2083
 21
2.3034
 31
0
  0
LINE
  8
LAYER1
  6
CONTINUOUS
 62
     7
 10
1.1667
 20
2.22
 30
0
 11
1.0833
 21
2.3034
 31
0
  0
LINE
  8
LAYER1
  6
CONTINUOUS
 62
     7
 10
1.0278
 20
2.22
 30
0
 11
1.0278
 21
2.2339
 31
0
  0
LINE
  8
LAYER1
  6
CONTINUOUS
 62
     7
 10
4.6528
 20
2.1367
 30
0
 11
4.7361
 21
2.22
 31
0
  0
LINE
  8
LAYER1
  6
CONTINUOUS
 62
     7
 10
4.5139
 20
2.1367
 30
0
 11
4.5972
 21
2.22
 31
0
  0
LINE
  8
LAYER1
  6
CONTINUOUS
 62
     7
 10
4.3889
 20
2.1367
 30
0
 11
4.4722
 21
2.22
 31
0
  0
LINE
  8
LAYER1
  6
CONTINUOUS
 62
     7
 10
4.25
 20
2.1367
 30
0
 11
4.3333
 21
2.22
 31
0
  0
LINE
  8
LAYER1
  6
CONTINUOUS
 62
     7
 10
4.125
 20
2.1367
 30
0
 11
4.2083
 21
2.22
 31
0
  0
LINE
  8
LAYER1
  6
CONTINUOUS
 62
     7
 10
3.9861
 20
2.1367
 30
0
 11
4.0694
 21
2.22
 31
0
  0
LINE
  8
LAYER1
  6
CONTINUOUS
 62
     7
 10
3.8611
 20
2.1367
 30
0
 11
3.9444
 21
2.22
 31
0
  0
LINE
  8
LAYER1
  6
CONTINUOUS
 62
     7
 10
3.7222
 20
2.1367
 30
0
 11
3.8056
 21
2.22
 31
0
  0
LINE
  8
LAYER1
  6
CONTINUOUS
 62
     7
 10
3.5833
 20
2.1367
 30
0
 11
3.6667
 21
2.22
 31
0
  0
LINE
  8
LAYER1
  6
CONTINUOUS
 62
     7
 10
3.4583
 20
2.1367
 30
0
 11
3.5417
 21
2.22
 31
0
  0
LINE
  8
LAYER1
  6
CONTINUOUS
 62
     7
 10
3.3194
 20
2.1367
 30
0
 11
3.4028
 21
2.22
 31
0
  0
LINE
  8
LAYER1
  6
CONTINUOUS
 62
     7
 10
3.1944
 20
2.1367
 30
0
 11
3.2778
 21
2.22
 31
0
  0
LINE
  8
LAYER1
  6
CONTINUOUS
 62
     7
 10
3.0556
 20
2.1367
 30
0
 11
3.1389
 21
2.22
 31
0
  0
LINE
  8
LAYER1
  6
CONTINUOUS
 62
     7
 10
2.9306
 20
2.1367
 30
0
 11
3.0139
 21
2.22
 31
0
  0
LINE
  8
LAYER1
  6
CONTINUOUS
 62
     7
 10
2.7917
 20
2.1367
 30
0
 11
2.875
 21
2.22
 31
0
  0
LINE
  8
LAYER1
  6
CONTINUOUS
 62
     7
 10
2.6667
 20
2.1367
 30
0
 11
2.75
 21
2.22
 31
0
  0
LINE
  8
LAYER1
  6
CONTINUOUS
 62
     7
 10
2.5278
 20
2.1367
 30
0
 11
2.6111
 21
2.22
 31
0
  0
LINE
  8
LAYER1
  6
CONTINUOUS
 62
     7
 10
2.3889
 20
2.1367
 30
0
 11
2.4722
 21
2.22
 31
0
  0
LINE
  8
LAYER1
  6
CONTINUOUS
 62
     7
 10
2.2639
 20
2.1367
 30
0
 11
2.3472
 21
2.22
 31
0
  0
LINE
  8
LAYER1
  6
CONTINUOUS
 62
     7
 10
2.125
 20
2.1367
 30
0
 11
2.2083
 21
2.22
 31
0
  0
LINE
  8
LAYER1
  6
CONTINUOUS
 62
     7
 10
2
 20
2.1367
 30
0
 11
2.0833
 21
2.22
 31
0
  0
LINE
  8
LAYER1
  6
CONTINUOUS
 62
     7
 10
1.8611
 20
2.1367
 30
0
 11
1.9444
 21
2.22
 31
0
  0
LINE
  8
LAYER1
  6
CONTINUOUS
 62
     7
 10
1.7361
 20
2.1367
 30
0
 11
1.8194
 21
2.22
 31
0
  0
LINE
  8
LAYER1
  6
CONTINUOUS
 62
     7
 10
1.5972
 20
2.1367
 30
0
 11
1.6806
 21
2.22
 31
0
  0
LINE
  8
LAYER1
  6
CONTINUOUS
 62
     7
 10
1.4722
 20
2.1367
 30
0
 11
1.5556
 21
2.22
 31
0
  0
LINE
  8
LAYER1
  6
CONTINUOUS
 62
     7
 10
1.3333
 20
2.1367
 30
0
 11
1.4167
 21
2.22
 31
0
  0
LINE
  8
LAYER1
  6
CONTINUOUS
 62
     7
 10
4.6944
 20
2.1367
 30
0
 11
4.7778
 21
2.22
 31
0
  0
LINE
  8
LAYER1
  6
CONTINUOUS
 62
     7
 10
4.5694
 20
2.1367
 30
0
 11
4.6528
 21
2.22
 31
0
  0
LINE
  8
LAYER1
  6
CONTINUOUS
 62
     7
 10
4.4306
 20
2.1367
 30
0
 11
4.5139
 21
2.22
 31
0
  0
LINE
  8
LAYER1
  6
CONTINUOUS
 62
     7
 10
4.2917
 20
2.1367
 30
0
 11
4.375
 21
2.22
 31
0
  0
LINE
  8
LAYER1
  6
CONTINUOUS
 62
     7
 10
4.1667
 20
2.1367
 30
0
 11
4.25
 21
2.22
 31
0
  0
LINE
  8
LAYER1
  6
CONTINUOUS
 62
     7
 10
4.0278
 20
2.1367
 30
0
 11
4.1111
 21
2.22
 31
0
  0
LINE
  8
LAYER1
  6
CONTINUOUS
 62
     7
 10
3.9028
 20
2.1367
 30
0
 11
3.9861
 21
2.22
 31
0
  0
LINE
  8
LAYER1
  6
CONTINUOUS
 62
     7
 10
3.7639
 20
2.1367
 30
0
 11
3.8472
 21
2.22
 31
0
  0
LINE
  8
LAYER1
  6
CONTINUOUS
 62
     7
 10
3.6389
 20
2.1367
 30
0
 11
3.7222
 21
2.22
 31
0
  0
LINE
  8
LAYER1
  6
CONTINUOUS
 62
     7
 10
3.5
 20
2.1367
 30
0
 11
3.5833
 21
2.22
 31
0
  0
LINE
  8
LAYER1
  6
CONTINUOUS
 62
     7
 10
3.375
 20
2.1367
 30
0
 11
3.4583
 21
2.22
 31
0
  0
LINE
  8
LAYER1
  6
CONTINUOUS
 62
     7
 10
3.2361
 20
2.1367
 30
0
 11
3.3194
 21
2.22
 31
0
  0
LINE
  8
LAYER1
  6
CONTINUOUS
 62
     7
 10
3.0972
 20
2.1367
 30
0
 11
3.1806
 21
2.22
 31
0
  0
LINE
  8
LAYER1
  6
CONTINUOUS
 62
     7
 10
2.9722
 20
2.1367
 30
0
 11
3.0556
 21
2.22
 31
0
  0
LINE
  8
LAYER1
  6
CONTINUOUS
 62
     7
 10
2.8333
 20
2.1367
 30
0
 11
2.9167
 21
2.22
 31
0
  0
LINE
  8
LAYER1
  6
CONTINUOUS
 62
     7
 10
2.7083
 20
2.1367
 30
0
 11
2.7917
 21
2.22
 31
0
  0
LINE
  8
LAYER1
  6
CONTINUOUS
 62
     7
 10
2.5694
 20
2.1367
 30
0
 11
2.6528
 21
2.22
 31
0
  0
LINE
  8
LAYER1
  6
CONTINUOUS
 62
     7
 10
2.4444
 20
2.1367
 30
0
 11
2.5278
 21
2.22
 31
0
  0
LINE
  8
LAYER1
  6
CONTINUOUS
 62
     7
 10
2.3056
 20
2.1367
 30
0
 11
2.3889
 21
2.22
 31
0
  0
LINE
  8
LAYER1
  6
CONTINUOUS
 62
     7
 10
2.1667
 20
2.1367
 30
0
 11
2.25
 21
2.22
 31
0
  0
LINE
  8
LAYER1
  6
CONTINUOUS
 62
     7
 10
2.0417
 20
2.1367
 30
0
 11
2.125
 21
2.22
 31
0
  0
LINE
  8
LAYER1
  6
CONTINUOUS
 62
     7
 10
1.9028
 20
2.1367
 30
0
 11
1.9861
 21
2.22
 31
0
  0
LINE
  8
LAYER1
  6
CONTINUOUS
 62
     7
 10
1.7778
 20
2.1367
 30
0
 11
1.8611
 21
2.22
 31
0
  0
LINE
  8
LAYER1
  6
CONTINUOUS
 62
     7
 10
1.6389
 20
2.1367
 30
0
 11
1.7222
 21
2.22
 31
0
  0
LINE
  8
LAYER1
  6
CONTINUOUS
 62
     7
 10
1.5139
 20
2.1367
 30
0
 11
1.5972
 21
2.22
 31
0
  0
LINE
  8
LAYER1
  6
CONTINUOUS
 62
     7
 10
1.375
 20
2.1367
 30
0
 11
1.4583
 21
2.22
 31
0
  0
LINE
  8
LAYER1
  6
CONTINUOUS
 62
     7
 10
4.5972
 20
2.3034
 30
0
 11
4.6806
 21
2.3867
 31
0
  0
LINE
  8
LAYER1
  6
CONTINUOUS
 62
     7
 10
4.4583
 20
2.3034
 30
0
 11
4.5417
 21
2.3867
 31
0
  0
LINE
  8
LAYER1
  6
CONTINUOUS
 62
     7
 10
4.3333
 20
2.3034
 30
0
 11
4.4167
 21
2.3867
 31
0
  0
LINE
  8
LAYER1
  6
CONTINUOUS
 62
     7
 10
4.1944
 20
2.3034
 30
0
 11
4.2778
 21
2.3867
 31
0
  0
LINE
  8
LAYER1
  6
CONTINUOUS
 62
     7
 10
4.0694
 20
2.3034
 30
0
 11
4.1528
 21
2.3867
 31
0
  0
LINE
  8
LAYER1
  6
CONTINUOUS
 62
     7
 10
3.9306
 20
2.3034
 30
0
 11
4.0139
 21
2.3867
 31
0
  0
LINE
  8
LAYER1
  6
CONTINUOUS
 62
     7
 10
3.8056
 20
2.3034
 30
0
 11
3.8889
 21
2.3867
 31
0
  0
LINE
  8
LAYER1
  6
CONTINUOUS
 62
     7
 10
3.6667
 20
2.3034
 30
0
 11
3.75
 21
2.3867
 31
0
  0
LINE
  8
LAYER1
  6
CONTINUOUS
 62
     7
 10
3.5417
 20
2.3034
 30
0
 11
3.625
 21
2.3867
 31
0
  0
LINE
  8
LAYER1
  6
CONTINUOUS
 62
     7
 10
3.4028
 20
2.3034
 30
0
 11
3.4861
 21
2.3867
 31
0
  0
LINE
  8
LAYER1
  6
CONTINUOUS
 62
     7
 10
3.2639
 20
2.3034
 30
0
 11
3.3472
 21
2.3867
 31
0
  0
LINE
  8
LAYER1
  6
CONTINUOUS
 62
     7
 10
3.1389
 20
2.3034
 30
0
 11
3.2222
 21
2.3867
 31
0
  0
LINE
  8
LAYER1
  6
CONTINUOUS
 62
     7
 10
3
 20
2.3034
 30
0
 11
3.0833
 21
2.3867
 31
0
  0
LINE
  8
LAYER1
  6
CONTINUOUS
 62
     7
 10
2.875
 20
2.3034
 30
0
 11
2.9583
 21
2.3867
 31
0
  0
LINE
  8
LAYER1
  6
CONTINUOUS
 62
     7
 10
2.7361
 20
2.3034
 30
0
 11
2.8194
 21
2.3867
 31
0
  0
LINE
  8
LAYER1
  6
CONTINUOUS
 62
     7
 10
2.6111
 20
2.3034
 30
0
 11
2.6944
 21
2.3867
 31
0
  0
LINE
  8
LAYER1
  6
CONTINUOUS
 62
     7
 10
2.4722
 20
2.3034
 30
0
 11
2.5556
 21
2.3867
 31
0
  0
LINE
  8
LAYER1
  6
CONTINUOUS
 62
     7
 10
2.3472
 20
2.3034
 30
0
 11
2.4306
 21
2.3867
 31
0
  0
LINE
  8
LAYER1
  6
CONTINUOUS
 62
     7
 10
2.2083
 20
2.3034
 30
0
 11
2.2917
 21
2.3867
 31
0
  0
LINE
  8
LAYER1
  6
CONTINUOUS
 62
     7
 10
2.0694
 20
2.3034
 30
0
 11
2.1528
 21
2.3867
 31
0
  0
LINE
  8
LAYER1
  6
CONTINUOUS
 62
     7
 10
1.9444
 20
2.3034
 30
0
 11
2.0278
 21
2.3867
 31
0
  0
LINE
  8
LAYER1
  6
CONTINUOUS
 62
     7
 10
1.8056
 20
2.3034
 30
0
 11
1.8889
 21
2.3867
 31
0
  0
LINE
  8
LAYER1
  6
CONTINUOUS
 62
     7
 10
1.6806
 20
2.3034
 30
0
 11
1.7639
 21
2.3867
 31
0
  0
LINE
  8
LAYER1
  6
CONTINUOUS
 62
     7
 10
1.5417
 20
2.3034
 30
0
 11
1.625
 21
2.3867
 31
0
  0
LINE
  8
LAYER1
  6
CONTINUOUS
 62
     7
 10
1.4167
 20
2.3034
 30
0
 11
1.5
 21
2.3867
 31
0
  0
LINE
  8
LAYER1
  6
CONTINUOUS
 62
     7
 10
1.2778
 20
2.3034
 30
0
 11
1.3611
 21
2.3867
 31
0
  0
LINE
  8
LAYER1
  6
CONTINUOUS
 62
     7
 10
4.6389
 20
2.3034
 30
0
 11
4.7222
 21
2.3867
 31
0
  0
LINE
  8
LAYER1
  6
CONTINUOUS
 62
     7
 10
4.5139
 20
2.3034
 30
0
 11
4.5972
 21
2.3867
 31
0
  0
LINE
  8
LAYER1
  6
CONTINUOUS
 62
     7
 10
4.375
 20
2.3034
 30
0
 11
4.4583
 21
2.3867
 31
0
  0
LINE
  8
LAYER1
  6
CONTINUOUS
 62
     7
 10
4.25
 20
2.3034
 30
0
 11
4.3333
 21
2.3867
 31
0
  0
LINE
  8
LAYER1
  6
CONTINUOUS
 62
     7
 10
4.1111
 20
2.3034
 30
0
 11
4.1944
 21
2.3867
 31
0
  0
LINE
  8
LAYER1
  6
CONTINUOUS
 62
     7
 10
3.9722
 20
2.3034
 30
0
 11
4.0556
 21
2.3867
 31
0
  0
LINE
  8
LAYER1
  6
CONTINUOUS
 62
     7
 10
3.8472
 20
2.3034
 30
0
 11
3.9306
 21
2.3867
 31
0
  0
LINE
  8
LAYER1
  6
CONTINUOUS
 62
     7
 10
3.7083
 20
2.3034
 30
0
 11
3.7917
 21
2.3867
 31
0
  0
LINE
  8
LAYER1
  6
CONTINUOUS
 62
     7
 10
3.5833
 20
2.3034
 30
0
 11
3.6667
 21
2.3867
 31
0
  0
LINE
  8
LAYER1
  6
CONTINUOUS
 62
     7
 10
3.4444
 20
2.3034
 30
0
 11
3.5278
 21
2.3867
 31
0
  0
LINE
  8
LAYER1
  6
CONTINUOUS
 62
     7
 10
3.3194
 20
2.3034
 30
0
 11
3.4028
 21
2.3867
 31
0
  0
LINE
  8
LAYER1
  6
CONTINUOUS
 62
     7
 10
3.1806
 20
2.3034
 30
0
 11
3.2639
 21
2.3867
 31
0
  0
LINE
  8
LAYER1
  6
CONTINUOUS
 62
     7
 10
3.0417
 20
2.3034
 30
0
 11
3.125
 21
2.3867
 31
0
  0
LINE
  8
LAYER1
  6
CONTINUOUS
 62
     7
 10
2.9167
 20
2.3034
 30
0
 11
3
 21
2.3867
 31
0
  0
LINE
  8
LAYER1
  6
CONTINUOUS
 62
     7
 10
2.7778
 20
2.3034
 30
0
 11
2.8611
 21
2.3867
 31
0
  0
LINE
  8
LAYER1
  6
CONTINUOUS
 62
     7
 10
2.6528
 20
2.3034
 30
0
 11
2.7361
 21
2.3867
 31
0
  0
LINE
  8
LAYER1
  6
CONTINUOUS
 62
     7
 10
2.5139
 20
2.3034
 30
0
 11
2.5972
 21
2.3867
 31
0
  0
LINE
  8
LAYER1
  6
CONTINUOUS
 62
     7
 10
2.3889
 20
2.3034
 30
0
 11
2.4722
 21
2.3867
 31
0
  0
LINE
  8
LAYER1
  6
CONTINUOUS
 62
     7
 10
2.25
 20
2.3034
 30
0
 11
2.3333
 21
2.3867
 31
0
  0
LINE
  8
LAYER1
  6
CONTINUOUS
 62
     7
 10
2.125
 20
2.3034
 30
0
 11
2.2083
 21
2.3867
 31
0
  0
LINE
  8
LAYER1
  6
CONTINUOUS
 62
     7
 10
1.9861
 20
2.3034
 30
0
 11
2.0694
 21
2.3867
 31
0
  0
LINE
  8
LAYER1
  6
CONTINUOUS
 62
     7
 10
1.8472
 20
2.3034
 30
0
 11
1.9306
 21
2.3867
 31
0
  0
LINE
  8
LAYER1
  6
CONTINUOUS
 62
     7
 10
1.7222
 20
2.3034
 30
0
 11
1.8056
 21
2.3867
 31
0
  0
LINE
  8
LAYER1
  6
CONTINUOUS
 62
     7
 10
1.5833
 20
2.3034
 30
0
 11
1.6667
 21
2.3867
 31
0
  0
LINE
  8
LAYER1
  6
CONTINUOUS
 62
     7
 10
1.4583
 20
2.3034
 30
0
 11
1.5417
 21
2.3867
 31
0
  0
LINE
  8
LAYER1
  6
CONTINUOUS
 62
     7
 10
1.3194
 20
2.3034
 30
0
 11
1.4028
 21
2.3867
 31
0
  0
LINE
  8
LAYER1
  6
CONTINUOUS
 62
     7
 10
1.25
 20
2.1923
 30
0
 11
1.2778
 21
2.22
 31
0
  0
LINE
  8
LAYER1
  6
CONTINUOUS
 62
     7
 10
1.25
 20
2.1506
 30
0
 11
1.3333
 21
2.22
 31
0
  0
LINE
  8
LAYER1
  6
CONTINUOUS
 62
     7
 10
1.25
 20
2.22
 30
0
 11
1.25
 21
2.1367
 31
0
  0
LINE
  8
LAYER1
  6
CONTINUOUS
 62
     7
 10
1.25
 20
2.3867
 30
0
 11
1.25
 21
2.3034
 31
0
  0
LINE
  8
LAYER1
  6
CONTINUOUS
 62
     7
 10
1.25
 20
2.3867
 30
0
 11
4.8056
 21
2.3867
 31
0
  0
LINE
  8
LAYER1
  6
CONTINUOUS
 62
     7
 10
1.25
 20
2.1367
 30
0
 11
4.8056
 21
2.1367
 31
0
  0
LINE
  8
LAYER1
  6
CONTINUOUS
 62
     7
 10
4.7361
 20
2.3034
 30
0
 11
4.8056
 21
2.3867
 31
0
  0
LINE
  8
LAYER1
  6
CONTINUOUS
 62
     7
 10
4.7778
 20
2.3034
 30
0
 11
4.8056
 21
2.345
 31
0
  0
LINE
  8
LAYER1
  6
CONTINUOUS
 62
     7
 10
4.7917
 20
2.1367
 30
0
 11
4.8056
 21
2.1645
 31
0
  0
LINE
  8
LAYER1
  6
CONTINUOUS
 62
     7
 10
4.8056
 20
2.1367
 30
0
 11
4.8056
 21
2.22
 31
0
  0
LINE
  8
LAYER1
  6
CONTINUOUS
 62
     7
 10
4.8056
 20
2.3867
 30
0
 11
4.8056
 21
2.3034
 31
0
  0
LINE
  8
LAYER1
  6
CONTINUOUS
 62
     7
 10
1.0278
 20
2.22
 30
0
 11
5.0694
 21
2.22
 31
0
  0
LINE
  8
LAYER1
  6
CONTINUOUS
 62
     7
 10
1.0278
 20
2.3034
 30
0
 11
5.0694
 21
2.3034
 31
0
  0
ENDBLK
  8
LAYER1
  0
BLOCK
  8
LAYER1
  2
Group41
 70
     0
 10
0
 20
0
 30
0
  0
LINE
  8
LAYER1
  6
CONTINUOUS
 62
     7
 10
5.0694
 20
2.22
 30
0
 11
5.0694
 21
2.3034
 31
0
  0
CIRCLE
  8
LAYER1
 10
4.2569
 20
2.8798
 30
0
 40
0.1319
  0
LINE
  8
LAYER1
  6
CONTINUOUS
 62
     7
 10
4.0833
 20
2.6645
 30
0
 11
4.4722
 21
3.0534
 31
0
  0
ENDBLK
  8
LAYER1
  0
BLOCK
  8
LAYER1
  2
Group42
 70
     0
 10
0
 20
0
 30
0
  0
LINE
  8
LAYER1
  6
CONTINUOUS
 62
     7
 10
4.0278
 20
2.7339
 30
0
 11
4.4028
 21
3.1089
 31
0
  0
CIRCLE
  8
LAYER1
 10
2.9931
 20
2.8798
 30
0
 40
0.1319
  0
LINE
  8
LAYER1
  6
CONTINUOUS
 62
     7
 10
2.9444
 20
2.7756
 30
0
 11
3.1111
 21
2.9423
 31
0
  0
ENDBLK
  8
LAYER1
  0
BLOCK
  8
LAYER1
  2
Group43
 70
     0
 10
0
 20
0
 30
0
  0
LINE
  8
LAYER1
  6
CONTINUOUS
 62
     7
 10
2.875
 20
2.845
 30
0
 11
3.0417
 21
3.0117
 31
0
  0
CIRCLE
  8
LAYER1
 10
1.7708
 20
2.8798
 30
0
 40
0.1319
  0
LINE
  8
LAYER1
  6
CONTINUOUS
 62
     7
 10
1.5417
 20
2.7339
 30
0
 11
1.6528
 21
2.845
 31
0
  0
LINE
  8
LAYER1
  6
CONTINUOUS
 62
     7
 10
1.8056
 20
3.0117
 30
0
 11
1.9167
 21
3.1089
 31
0
  0
LINE
  8
LAYER1
  6
CONTINUOUS
 62
     7
 10
1.5972
 20
2.6645
 30
0
 11
1.7083
 21
2.7756
 31
0
  0
ENDBLK
  8
LAYER1
  0
BLOCK
  8
LAYER1
  2
Group44
 70
     0
 10
0
 20
0
 30
0
  0
POLYLINE
  8
LAYER1
  6
CONTINUOUS
 62
     7
 66
     1
 70
     0
 40
0.0039
 41
0.0039
  0
VERTEX
  8
LAYER1
 10
1.9028
 20
2.1298
 30
0
 70
     0
  0
VERTEX
  8
LAYER1
 10
1.9001
 20
2.1033
 30
0
 70
     0
  0
VERTEX
  8
LAYER1
 10
1.8923
 20
2.0786
 30
0
 70
     0
  0
VERTEX
  8
LAYER1
 10
1.8801
 20
2.0562
 30
0
 70
     0
  0
VERTEX
  8
LAYER1
 10
1.8639
 20
2.0367
 30
0
 70
     0
  0
VERTEX
  8
LAYER1
 10
1.8444
 20
2.0205
 30
0
 70
     0
  0
VERTEX
  8
LAYER1
 10
1.822
 20
2.0083
 30
0
 70
     0
  0
VERTEX
  8
LAYER1
 10
1.7973
 20
2.0005
 30
0
 70
     0
  0
VERTEX
  8
LAYER1
 10
1.7708
 20
1.9978
 30
0
 70
     0
  0
VERTEX
  8
LAYER1
 10
1.7708
 20
1.9978
 30
0
 70
     0
  0
VERTEX
  8
LAYER1
 10
1.7444
 20
2.0005
 30
0
 70
     0
  0
VERTEX
  8
LAYER1
 10
1.7197
 20
2.0083
 30
0
 70
     0
  0
VERTEX
  8
LAYER1
 10
1.6973
 20
2.0205
 30
0
 70
     0
  0
VERTEX
  8
LAYER1
 10
1.6777
 20
2.0367
 30
0
 70
     0
  0
VERTEX
  8
LAYER1
 10
1.6615
 20
2.0562
 30
0
 70
     0
  0
VERTEX
  8
LAYER1
 10
1.6493
 20
2.0786
 30
0
 70
     0
  0
VERTEX
  8
LAYER1
 10
1.6416
 20
2.1033
 30
0
 70
     0
  0
VERTEX
  8
LAYER1
 10
1.6389
 20
2.1298
 30
0
 70
     0
  0
SEQEND
  0
ENDBLK
  8
LAYER1
  0
BLOCK
  8
LAYER1
  2
Group45
 70
     0
 10
0
 20
0
 30
0
  0
LINE
  8
LAYER1
  6
CONTINUOUS
 62
     7
 10
1.875
 20
2.9423
 30
0
 11
1.9861
 21
3.0534
 31
0
  0
POLYLINE
  8
LAYER1
  6
CONTINUOUS
 62
     7
 66
     1
 70
     0
 40
0.0039
 41
0.0039
  0
VERTEX
  8
LAYER1
 10
1.6111
 20
2.4423
 30
0
 70
     0
  0
VERTEX
  8
LAYER1
 10
1.9167
 20
2.4423
 30
0
 70
     0
  0
VERTEX
  8
LAYER1
 10
1.9167
 20
2.3867
 30
0
 70
     0
  0
VERTEX
  8
LAYER1
 10
1.6111
 20
2.3867
 30
0
 70
     0
  0
VERTEX
  8
LAYER1
 10
1.6111
 20
2.4423
 30
0
 70
     0
  0
SEQEND
  0
INSERT
  8
LAYER1
  2
Group44
 10
0
 20
0
 30
0
  0
LINE
  8
LAYER1
  6
CONTINUOUS
 62
     7
 10
1.6389
 20
2.1367
 30
0
 11
1.8889
 21
2.1367
 31
0
  0
POLYLINE
  8
LAYER1
  6
CONTINUOUS
 62
     7
 66
     1
 70
     0
 40
0.0039
 41
0.0039
  0
VERTEX
  8
LAYER1
 10
1.6944
 20
2.3867
 30
0
 70
     0
  0
VERTEX
  8
LAYER1
 10
1.8333
 20
2.3867
 30
0
 70
     0
  0
VERTEX
  8
LAYER1
 10
1.8333
 20
2.1228
 30
0
 70
     0
  0
VERTEX
  8
LAYER1
 10
1.6944
 20
2.1228
 30
0
 70
     0
  0
VERTEX
  8
LAYER1
 10
1.6944
 20
2.3867
 30
0
 70
     0
  0
SEQEND
  0
ENDBLK
  8
LAYER1
  0
BLOCK
  8
LAYER1
  2
Group46
 70
     0
 10
0
 20
0
 30
0
  0
POLYLINE
  8
LAYER1
  6
CONTINUOUS
 62
     7
 66
     1
 70
     0
 40
0.0039
 41
0.0039
  0
VERTEX
  8
LAYER1
 10
2.8889
 20
2.3798
 30
0
 70
     0
  0
VERTEX
  8
LAYER1
 10
2.8916
 20
2.4062
 30
0
 70
     0
  0
VERTEX
  8
LAYER1
 10
2.8993
 20
2.4309
 30
0
 70
     0
  0
VERTEX
  8
LAYER1
 10
2.9116
 20
2.4533
 30
0
 70
     0
  0
VERTEX
  8
LAYER1
 10
2.9277
 20
2.4729
 30
0
 70
     0
  0
VERTEX
  8
LAYER1
 10
2.9473
 20
2.4891
 30
0
 70
     0
  0
VERTEX
  8
LAYER1
 10
2.9697
 20
2.5013
 30
0
 70
     0
  0
VERTEX
  8
LAYER1
 10
2.9944
 20
2.509
 30
0
 70
     0
  0
VERTEX
  8
LAYER1
 10
3.0208
 20
2.5117
 30
0
 70
     0
  0
VERTEX
  8
LAYER1
 10
3.0208
 20
2.5117
 30
0
 70
     0
  0
VERTEX
  8
LAYER1
 10
3.0473
 20
2.509
 30
0
 70
     0
  0
VERTEX
  8
LAYER1
 10
3.072
 20
2.5013
 30
0
 70
     0
  0
VERTEX
  8
LAYER1
 10
3.0944
 20
2.4891
 30
0
 70
     0
  0
VERTEX
  8
LAYER1
 10
3.1139
 20
2.4729
 30
0
 70
     0
  0
VERTEX
  8
LAYER1
 10
3.1301
 20
2.4533
 30
0
 70
     0
  0
VERTEX
  8
LAYER1
 10
3.1423
 20
2.4309
 30
0
 70
     0
  0
VERTEX
  8
LAYER1
 10
3.1501
 20
2.4062
 30
0
 70
     0
  0
VERTEX
  8
LAYER1
 10
3.1528
 20
2.3798
 30
0
 70
     0
  0
SEQEND
  0
ENDBLK
  8
LAYER1
  0
BLOCK
  8
LAYER1
  2
Group47
 70
     0
 10
0
 20
0
 30
0
  0
POLYLINE
  8
LAYER1
  6
CONTINUOUS
 62
     7
 66
     1
 70
     0
 40
0.0039
 41
0.0039
  0
VERTEX
  8
LAYER1
 10
2.8611
 20
2.1367
 30
0
 70
     0
  0
VERTEX
  8
LAYER1
 10
3.1667
 20
2.1367
 30
0
 70
     0
  0
VERTEX
  8
LAYER1
 10
3.1667
 20
2.0812
 30
0
 70
     0
  0
VERTEX
  8
LAYER1
 10
2.8611
 20
2.0812
 30
0
 70
     0
  0
VERTEX
  8
LAYER1
 10
2.8611
 20
2.1367
 30
0
 70
     0
  0
SEQEND
  0
INSERT
  8
LAYER1
  2
Group46
 10
0
 20
0
 30
0
  0
LINE
  8
LAYER1
  6
CONTINUOUS
 62
     7
 10
2.8889
 20
2.3867
 30
0
 11
3.1389
 21
2.3867
 31
0
  0
POLYLINE
  8
LAYER1
  6
CONTINUOUS
 62
     7
 66
     1
 70
     0
 40
0.0039
 41
0.0039
  0
VERTEX
  8
LAYER1
 10
2.9444
 20
2.3867
 30
0
 70
     0
  0
VERTEX
  8
LAYER1
 10
3.0833
 20
2.3867
 30
0
 70
     0
  0
VERTEX
  8
LAYER1
 10
3.0833
 20
2.1228
 30
0
 70
     0
  0
VERTEX
  8
LAYER1
 10
2.9444
 20
2.1228
 30
0
 70
     0
  0
VERTEX
  8
LAYER1
 10
2.9444
 20
2.3867
 30
0
 70
     0
  0
SEQEND
  0
ENDBLK
  8
LAYER1
  0
BLOCK
  8
LAYER1
  2
Group48
 70
     0
 10
0
 20
0
 30
0
  0
POLYLINE
  8
LAYER1
  6
CONTINUOUS
 62
     7
 66
     1
 70
     0
 40
0.0039
 41
0.0039
  0
VERTEX
  8
LAYER1
 10
4.1111
 20
2.1367
 30
0
 70
     0
  0
VERTEX
  8
LAYER1
 10
4.4167
 20
2.1367
 30
0
 70
     0
  0
VERTEX
  8
LAYER1
 10
4.4167
 20
2.0812
 30
0
 70
     0
  0
VERTEX
  8
LAYER1
 10
4.1111
 20
2.0812
 30
0
 70
     0
  0
VERTEX
  8
LAYER1
 10
4.1111
 20
2.1367
 30
0
 70
     0
  0
SEQEND
  0
POLYLINE
  8
LAYER1
  6
CONTINUOUS
 62
     7
 66
     1
 70
     0
 40
0.0039
 41
0.0039
  0
VERTEX
  8
LAYER1
 10
4.1944
 20
2.3867
 30
0
 70
     0
  0
VERTEX
  8
LAYER1
 10
4.3333
 20
2.3867
 30
0
 70
     0
  0
VERTEX
  8
LAYER1
 10
4.3333
 20
2.1228
 30
0
 70
     0
  0
VERTEX
  8
LAYER1
 10
4.1944
 20
2.1228
 30
0
 70
     0
  0
VERTEX
  8
LAYER1
 10
4.1944
 20
2.3867
 30
0
 70
     0
  0
SEQEND
  0
POLYLINE
  8
LAYER1
  6
CONTINUOUS
 62
     7
 66
     1
 70
     0
 40
0.0039
 41
0.0039
  0
VERTEX
  8
LAYER1
 10
4.1111
 20
2.4423
 30
0
 70
     0
  0
VERTEX
  8
LAYER1
 10
4.4167
 20
2.4423
 30
0
 70
     0
  0
VERTEX
  8
LAYER1
 10
4.4167
 20
2.3867
 30
0
 70
     0
  0
VERTEX
  8
LAYER1
 10
4.1111
 20
2.3867
 30
0
 70
     0
  0
VERTEX
  8
LAYER1
 10
4.1111
 20
2.4423
 30
0
 70
     0
  0
SEQEND
  0
ENDBLK
  8
LAYER1
  0
BLOCK
  8
LAYER1
  2
Group49
 70
     0
 10
0
 20
0
 30
0
  0
LINE
  8
LAYER1
  6
CONTINUOUS
 62
     7
 10
9.4167
 20
7.97
 30
0
 11
9.4167
 21
7.8867
 31
0
  0
LINE
  8
LAYER1
  6
CONTINUOUS
 62
     7
 10
13.4722
 20
7.9145
 30
0
 11
13.4167
 21
7.97
 31
0
  0
LINE
  8
LAYER1
  6
CONTINUOUS
 62
     7
 10
13.3611
 20
7.8867
 30
0
 11
13.2778
 21
7.97
 31
0
  0
LINE
  8
LAYER1
  6
CONTINUOUS
 62
     7
 10
13.2361
 20
7.8867
 30
0
 11
13.1528
 21
7.97
 31
0
  0
LINE
  8
LAYER1
  6
CONTINUOUS
 62
     7
 10
13.0972
 20
7.8867
 30
0
 11
13.0139
 21
7.97
 31
0
  0
LINE
  8
LAYER1
  6
CONTINUOUS
 62
     7
 10
12.9722
 20
7.8867
 30
0
 11
12.8889
 21
7.97
 31
0
  0
LINE
  8
LAYER1
  6
CONTINUOUS
 62
     7
 10
12.8333
 20
7.8867
 30
0
 11
12.75
 21
7.97
 31
0
  0
LINE
  8
LAYER1
  6
CONTINUOUS
 62
     7
 10
12.7083
 20
7.8867
 30
0
 11
12.625
 21
7.97
 31
0
  0
LINE
  8
LAYER1
  6
CONTINUOUS
 62
     7
 10
12.5694
 20
7.8867
 30
0
 11
12.4861
 21
7.97
 31
0
  0
LINE
  8
LAYER1
  6
CONTINUOUS
 62
     7
 10
12.4306
 20
7.8867
 30
0
 11
12.3472
 21
7.97
 31
0
  0
LINE
  8
LAYER1
  6
CONTINUOUS
 62
     7
 10
12.3056
 20
7.8867
 30
0
 11
12.2222
 21
7.97
 31
0
  0
LINE
  8
LAYER1
  6
CONTINUOUS
 62
     7
 10
12.1667
 20
7.8867
 30
0
 11
12.0833
 21
7.97
 31
0
  0
LINE
  8
LAYER1
  6
CONTINUOUS
 62
     7
 10
12.0417
 20
7.8867
 30
0
 11
11.9583
 21
7.97
 31
0
  0
LINE
  8
LAYER1
  6
CONTINUOUS
 62
     7
 10
11.9028
 20
7.8867
 30
0
 11
11.8194
 21
7.97
 31
0
  0
LINE
  8
LAYER1
  6
CONTINUOUS
 62
     7
 10
11.7778
 20
7.8867
 30
0
 11
11.6944
 21
7.97
 31
0
  0
LINE
  8
LAYER1
  6
CONTINUOUS
 62
     7
 10
11.6389
 20
7.8867
 30
0
 11
11.5556
 21
7.97
 31
0
  0
LINE
  8
LAYER1
  6
CONTINUOUS
 62
     7
 10
11.5
 20
7.8867
 30
0
 11
11.4167
 21
7.97
 31
0
  0
LINE
  8
LAYER1
  6
CONTINUOUS
 62
     7
 10
11.375
 20
7.8867
 30
0
 11
11.2917
 21
7.97
 31
0
  0
LINE
  8
LAYER1
  6
CONTINUOUS
 62
     7
 10
11.2361
 20
7.8867
 30
0
 11
11.1528
 21
7.97
 31
0
  0
LINE
  8
LAYER1
  6
CONTINUOUS
 62
     7
 10
11.1111
 20
7.8867
 30
0
 11
11.0278
 21
7.97
 31
0
  0
LINE
  8
LAYER1
  6
CONTINUOUS
 62
     7
 10
10.9722
 20
7.8867
 30
0
 11
10.8889
 21
7.97
 31
0
  0
LINE
  8
LAYER1
  6
CONTINUOUS
 62
     7
 10
10.8472
 20
7.8867
 30
0
 11
10.7639
 21
7.97
 31
0
  0
LINE
  8
LAYER1
  6
CONTINUOUS
 62
     7
 10
10.7083
 20
7.8867
 30
0
 11
10.625
 21
7.97
 31
0
  0
LINE
  8
LAYER1
  6
CONTINUOUS
 62
     7
 10
10.5833
 20
7.8867
 30
0
 11
10.5
 21
7.97
 31
0
  0
LINE
  8
LAYER1
  6
CONTINUOUS
 62
     7
 10
10.4444
 20
7.8867
 30
0
 11
10.3611
 21
7.97
 31
0
  0
LINE
  8
LAYER1
  6
CONTINUOUS
 62
     7
 10
10.3056
 20
7.8867
 30
0
 11
10.2222
 21
7.97
 31
0
  0
LINE
  8
LAYER1
  6
CONTINUOUS
 62
     7
 10
10.1806
 20
7.8867
 30
0
 11
10.0972
 21
7.97
 31
0
  0
LINE
  8
LAYER1
  6
CONTINUOUS
 62
     7
 10
10.0417
 20
7.8867
 30
0
 11
9.9583
 21
7.97
 31
0
  0
LINE
  8
LAYER1
  6
CONTINUOUS
 62
     7
 10
9.9167
 20
7.8867
 30
0
 11
9.8333
 21
7.97
 31
0
  0
LINE
  8
LAYER1
  6
CONTINUOUS
 62
     7
 10
9.7778
 20
7.8867
 30
0
 11
9.6944
 21
7.97
 31
0
  0
LINE
  8
LAYER1
  6
CONTINUOUS
 62
     7
 10
9.6528
 20
7.8867
 30
0
 11
9.5694
 21
7.97
 31
0
  0
LINE
  8
LAYER1
  6
CONTINUOUS
 62
     7
 10
9.5139
 20
7.8867
 30
0
 11
9.4306
 21
7.97
 31
0
  0
LINE
  8
LAYER1
  6
CONTINUOUS
 62
     7
 10
13.4722
 20
7.9562
 30
0
 11
13.4583
 21
7.97
 31
0
  0
LINE
  8
LAYER1
  6
CONTINUOUS
 62
     7
 10
13.4028
 20
7.8867
 30
0
 11
13.3194
 21
7.97
 31
0
  0
LINE
  8
LAYER1
  6
CONTINUOUS
 62
     7
 10
13.2778
 20
7.8867
 30
0
 11
13.1944
 21
7.97
 31
0
  0
LINE
  8
LAYER1
  6
CONTINUOUS
 62
     7
 10
13.1389
 20
7.8867
 30
0
 11
13.0556
 21
7.97
 31
0
  0
LINE
  8
LAYER1
  6
CONTINUOUS
 62
     7
 10
13.0139
 20
7.8867
 30
0
 11
12.9306
 21
7.97
 31
0
  0
LINE
  8
LAYER1
  6
CONTINUOUS
 62
     7
 10
12.875
 20
7.8867
 30
0
 11
12.7917
 21
7.97
 31
0
  0
LINE
  8
LAYER1
  6
CONTINUOUS
 62
     7
 10
12.75
 20
7.8867
 30
0
 11
12.6667
 21
7.97
 31
0
  0
LINE
  8
LAYER1
  6
CONTINUOUS
 62
     7
 10
12.6111
 20
7.8867
 30
0
 11
12.5278
 21
7.97
 31
0
  0
LINE
  8
LAYER1
  6
CONTINUOUS
 62
     7
 10
12.4861
 20
7.8867
 30
0
 11
12.4028
 21
7.97
 31
0
  0
LINE
  8
LAYER1
  6
CONTINUOUS
 62
     7
 10
12.3472
 20
7.8867
 30
0
 11
12.2639
 21
7.97
 31
0
  0
LINE
  8
LAYER1
  6
CONTINUOUS
 62
     7
 10
12.2083
 20
7.8867
 30
0
 11
12.125
 21
7.97
 31
0
  0
LINE
  8
LAYER1
  6
CONTINUOUS
 62
     7
 10
12.0833
 20
7.8867
 30
0
 11
12
 21
7.97
 31
0
  0
LINE
  8
LAYER1
  6
CONTINUOUS
 62
     7
 10
11.9444
 20
7.8867
 30
0
 11
11.8611
 21
7.97
 31
0
  0
LINE
  8
LAYER1
  6
CONTINUOUS
 62
     7
 10
11.8194
 20
7.8867
 30
0
 11
11.7361
 21
7.97
 31
0
  0
LINE
  8
LAYER1
  6
CONTINUOUS
 62
     7
 10
11.6806
 20
7.8867
 30
0
 11
11.5972
 21
7.97
 31
0
  0
LINE
  8
LAYER1
  6
CONTINUOUS
 62
     7
 10
11.5556
 20
7.8867
 30
0
 11
11.4722
 21
7.97
 31
0
  0
LINE
  8
LAYER1
  6
CONTINUOUS
 62
     7
 10
11.4167
 20
7.8867
 30
0
 11
11.3333
 21
7.97
 31
0
  0
LINE
  8
LAYER1
  6
CONTINUOUS
 62
     7
 10
11.2917
 20
7.8867
 30
0
 11
11.2083
 21
7.97
 31
0
  0
LINE
  8
LAYER1
  6
CONTINUOUS
 62
     7
 10
11.1528
 20
7.8867
 30
0
 11
11.0694
 21
7.97
 31
0
  0
LINE
  8
LAYER1
  6
CONTINUOUS
 62
     7
 10
11.0139
 20
7.8867
 30
0
 11
10.9306
 21
7.97
 31
0
  0
LINE
  8
LAYER1
  6
CONTINUOUS
 62
     7
 10
10.8889
 20
7.8867
 30
0
 11
10.8056
 21
7.97
 31
0
  0
LINE
  8
LAYER1
  6
CONTINUOUS
 62
     7
 10
10.75
 20
7.8867
 30
0
 11
10.6667
 21
7.97
 31
0
  0
LINE
  8
LAYER1
  6
CONTINUOUS
 62
     7
 10
10.625
 20
7.8867
 30
0
 11
10.5417
 21
7.97
 31
0
  0
LINE
  8
LAYER1
  6
CONTINUOUS
 62
     7
 10
10.4861
 20
7.8867
 30
0
 11
10.4028
 21
7.97
 31
0
  0
LINE
  8
LAYER1
  6
CONTINUOUS
 62
     7
 10
10.3611
 20
7.8867
 30
0
 11
10.2778
 21
7.97
 31
0
  0
LINE
  8
LAYER1
  6
CONTINUOUS
 62
     7
 10
10.2222
 20
7.8867
 30
0
 11
10.1389
 21
7.97
 31
0
  0
LINE
  8
LAYER1
  6
CONTINUOUS
 62
     7
 10
10.0833
 20
7.8867
 30
0
 11
10
 21
7.97
 31
0
  0
LINE
  8
LAYER1
  6
CONTINUOUS
 62
     7
 10
9.9583
 20
7.8867
 30
0
 11
9.875
 21
7.97
 31
0
  0
LINE
  8
LAYER1
  6
CONTINUOUS
 62
     7
 10
9.8194
 20
7.8867
 30
0
 11
9.7361
 21
7.97
 31
0
  0
LINE
  8
LAYER1
  6
CONTINUOUS
 62
     7
 10
9.6944
 20
7.8867
 30
0
 11
9.6111
 21
7.97
 31
0
  0
LINE
  8
LAYER1
  6
CONTINUOUS
 62
     7
 10
9.5556
 20
7.8867
 30
0
 11
9.4722
 21
7.97
 31
0
  0
LINE
  8
LAYER1
  6
CONTINUOUS
 62
     7
 10
9.4306
 20
7.8867
 30
0
 11
9.4167
 21
7.8867
 31
0
  0
LINE
  8
LAYER1
  6
CONTINUOUS
 62
     7
 10
13.0556
 20
7.8034
 30
0
 11
13.1389
 21
7.8867
 31
0
  0
LINE
  8
LAYER1
  6
CONTINUOUS
 62
     7
 10
12.9167
 20
7.8034
 30
0
 11
13
 21
7.8867
 31
0
  0
LINE
  8
LAYER1
  6
CONTINUOUS
 62
     7
 10
12.7778
 20
7.8034
 30
0
 11
12.8611
 21
7.8867
 31
0
  0
LINE
  8
LAYER1
  6
CONTINUOUS
 62
     7
 10
12.6528
 20
7.8034
 30
0
 11
12.7361
 21
7.8867
 31
0
  0
LINE
  8
LAYER1
  6
CONTINUOUS
 62
     7
 10
12.5139
 20
7.8034
 30
0
 11
12.5972
 21
7.8867
 31
0
  0
LINE
  8
LAYER1
  6
CONTINUOUS
 62
     7
 10
12.3889
 20
7.8034
 30
0
 11
12.4722
 21
7.8867
 31
0
  0
LINE
  8
LAYER1
  6
CONTINUOUS
 62
     7
 10
12.25
 20
7.8034
 30
0
 11
12.3333
 21
7.8867
 31
0
  0
LINE
  8
LAYER1
  6
CONTINUOUS
 62
     7
 10
12.125
 20
7.8034
 30
0
 11
12.2083
 21
7.8867
 31
0
  0
LINE
  8
LAYER1
  6
CONTINUOUS
 62
     7
 10
11.9861
 20
7.8034
 30
0
 11
12.0694
 21
7.8867
 31
0
  0
LINE
  8
LAYER1
  6
CONTINUOUS
 62
     7
 10
11.8472
 20
7.8034
 30
0
 11
11.9306
 21
7.8867
 31
0
  0
LINE
  8
LAYER1
  6
CONTINUOUS
 62
     7
 10
11.7222
 20
7.8034
 30
0
 11
11.8056
 21
7.8867
 31
0
  0
LINE
  8
LAYER1
  6
CONTINUOUS
 62
     7
 10
11.5833
 20
7.8034
 30
0
 11
11.6667
 21
7.8867
 31
0
  0
LINE
  8
LAYER1
  6
CONTINUOUS
 62
     7
 10
11.4583
 20
7.8034
 30
0
 11
11.5417
 21
7.8867
 31
0
  0
LINE
  8
LAYER1
  6
CONTINUOUS
 62
     7
 10
11.3194
 20
7.8034
 30
0
 11
11.4028
 21
7.8867
 31
0
  0
LINE
  8
LAYER1
  6
CONTINUOUS
 62
     7
 10
11.1944
 20
7.8034
 30
0
 11
11.2778
 21
7.8867
 31
0
  0
LINE
  8
LAYER1
  6
CONTINUOUS
 62
     7
 10
11.0556
 20
7.8034
 30
0
 11
11.1389
 21
7.8867
 31
0
  0
LINE
  8
LAYER1
  6
CONTINUOUS
 62
     7
 10
10.9306
 20
7.8034
 30
0
 11
11.0139
 21
7.8867
 31
0
  0
LINE
  8
LAYER1
  6
CONTINUOUS
 62
     7
 10
10.7917
 20
7.8034
 30
0
 11
10.875
 21
7.8867
 31
0
  0
LINE
  8
LAYER1
  6
CONTINUOUS
 62
     7
 10
10.6528
 20
7.8034
 30
0
 11
10.7361
 21
7.8867
 31
0
  0
LINE
  8
LAYER1
  6
CONTINUOUS
 62
     7
 10
10.5278
 20
7.8034
 30
0
 11
10.6111
 21
7.8867
 31
0
  0
LINE
  8
LAYER1
  6
CONTINUOUS
 62
     7
 10
10.3889
 20
7.8034
 30
0
 11
10.4722
 21
7.8867
 31
0
  0
LINE
  8
LAYER1
  6
CONTINUOUS
 62
     7
 10
10.2639
 20
7.8034
 30
0
 11
10.3472
 21
7.8867
 31
0
  0
LINE
  8
LAYER1
  6
CONTINUOUS
 62
     7
 10
10.125
 20
7.8034
 30
0
 11
10.2083
 21
7.8867
 31
0
  0
LINE
  8
LAYER1
  6
CONTINUOUS
 62
     7
 10
10
 20
7.8034
 30
0
 11
10.0833
 21
7.8867
 31
0
  0
LINE
  8
LAYER1
  6
CONTINUOUS
 62
     7
 10
9.8611
 20
7.8034
 30
0
 11
9.9444
 21
7.8867
 31
0
  0
LINE
  8
LAYER1
  6
CONTINUOUS
 62
     7
 10
9.7361
 20
7.8034
 30
0
 11
9.8194
 21
7.8867
 31
0
  0
LINE
  8
LAYER1
  6
CONTINUOUS
 62
     7
 10
13.0972
 20
7.8034
 30
0
 11
13.1806
 21
7.8867
 31
0
  0
LINE
  8
LAYER1
  6
CONTINUOUS
 62
     7
 10
12.9583
 20
7.8034
 30
0
 11
13.0417
 21
7.8867
 31
0
  0
LINE
  8
LAYER1
  6
CONTINUOUS
 62
     7
 10
12.8333
 20
7.8034
 30
0
 11
12.9167
 21
7.8867
 31
0
  0
LINE
  8
LAYER1
  6
CONTINUOUS
 62
     7
 10
12.6944
 20
7.8034
 30
0
 11
12.7778
 21
7.8867
 31
0
  0
LINE
  8
LAYER1
  6
CONTINUOUS
 62
     7
 10
12.5556
 20
7.8034
 30
0
 11
12.6389
 21
7.8867
 31
0
  0
LINE
  8
LAYER1
  6
CONTINUOUS
 62
     7
 10
12.4306
 20
7.8034
 30
0
 11
12.5139
 21
7.8867
 31
0
  0
LINE
  8
LAYER1
  6
CONTINUOUS
 62
     7
 10
12.2917
 20
7.8034
 30
0
 11
12.375
 21
7.8867
 31
0
  0
LINE
  8
LAYER1
  6
CONTINUOUS
 62
     7
 10
12.1667
 20
7.8034
 30
0
 11
12.25
 21
7.8867
 31
0
  0
LINE
  8
LAYER1
  6
CONTINUOUS
 62
     7
 10
12.0278
 20
7.8034
 30
0
 11
12.1111
 21
7.8867
 31
0
  0
LINE
  8
LAYER1
  6
CONTINUOUS
 62
     7
 10
11.9028
 20
7.8034
 30
0
 11
11.9861
 21
7.8867
 31
0
  0
LINE
  8
LAYER1
  6
CONTINUOUS
 62
     7
 10
11.7639
 20
7.8034
 30
0
 11
11.8472
 21
7.8867
 31
0
  0
LINE
  8
LAYER1
  6
CONTINUOUS
 62
     7
 10
11.6389
 20
7.8034
 30
0
 11
11.7222
 21
7.8867
 31
0
  0
LINE
  8
LAYER1
  6
CONTINUOUS
 62
     7
 10
11.5
 20
7.8034
 30
0
 11
11.5833
 21
7.8867
 31
0
  0
LINE
  8
LAYER1
  6
CONTINUOUS
 62
     7
 10
11.3611
 20
7.8034
 30
0
 11
11.4444
 21
7.8867
 31
0
  0
LINE
  8
LAYER1
  6
CONTINUOUS
 62
     7
 10
11.2361
 20
7.8034
 30
0
 11
11.3194
 21
7.8867
 31
0
  0
LINE
  8
LAYER1
  6
CONTINUOUS
 62
     7
 10
11.0972
 20
7.8034
 30
0
 11
11.1806
 21
7.8867
 31
0
  0
LINE
  8
LAYER1
  6
CONTINUOUS
 62
     7
 10
10.9722
 20
7.8034
 30
0
 11
11.0556
 21
7.8867
 31
0
  0
LINE
  8
LAYER1
  6
CONTINUOUS
 62
     7
 10
10.8333
 20
7.8034
 30
0
 11
10.9167
 21
7.8867
 31
0
  0
LINE
  8
LAYER1
  6
CONTINUOUS
 62
     7
 10
10.7083
 20
7.8034
 30
0
 11
10.7917
 21
7.8867
 31
0
  0
LINE
  8
LAYER1
  6
CONTINUOUS
 62
     7
 10
10.5694
 20
7.8034
 30
0
 11
10.6528
 21
7.8867
 31
0
  0
LINE
  8
LAYER1
  6
CONTINUOUS
 62
     7
 10
10.4306
 20
7.8034
 30
0
 11
10.5139
 21
7.8867
 31
0
  0
LINE
  8
LAYER1
  6
CONTINUOUS
 62
     7
 10
10.3056
 20
7.8034
 30
0
 11
10.3889
 21
7.8867
 31
0
  0
LINE
  8
LAYER1
  6
CONTINUOUS
 62
     7
 10
10.1667
 20
7.8034
 30
0
 11
10.25
 21
7.8867
 31
0
  0
LINE
  8
LAYER1
  6
CONTINUOUS
 62
     7
 10
10.0417
 20
7.8034
 30
0
 11
10.125
 21
7.8867
 31
0
  0
LINE
  8
LAYER1
  6
CONTINUOUS
 62
     7
 10
9.9028
 20
7.8034
 30
0
 11
9.9861
 21
7.8867
 31
0
  0
LINE
  8
LAYER1
  6
CONTINUOUS
 62
     7
 10
9.7778
 20
7.8034
 30
0
 11
9.8611
 21
7.8867
 31
0
  0
LINE
  8
LAYER1
  6
CONTINUOUS
 62
     7
 10
13
 20
7.97
 30
0
 11
13.0833
 21
8.0534
 31
0
  0
LINE
  8
LAYER1
  6
CONTINUOUS
 62
     7
 10
12.8611
 20
7.97
 30
0
 11
12.9444
 21
8.0534
 31
0
  0
LINE
  8
LAYER1
  6
CONTINUOUS
 62
     7
 10
12.7222
 20
7.97
 30
0
 11
12.8056
 21
8.0534
 31
0
  0
LINE
  8
LAYER1
  6
CONTINUOUS
 62
     7
 10
12.5972
 20
7.97
 30
0
 11
12.6806
 21
8.0534
 31
0
  0
LINE
  8
LAYER1
  6
CONTINUOUS
 62
     7
 10
12.4583
 20
7.97
 30
0
 11
12.5417
 21
8.0534
 31
0
  0
LINE
  8
LAYER1
  6
CONTINUOUS
 62
     7
 10
12.3333
 20
7.97
 30
0
 11
12.4167
 21
8.0534
 31
0
  0
LINE
  8
LAYER1
  6
CONTINUOUS
 62
     7
 10
12.1944
 20
7.97
 30
0
 11
12.2778
 21
8.0534
 31
0
  0
LINE
  8
LAYER1
  6
CONTINUOUS
 62
     7
 10
12.0694
 20
7.97
 30
0
 11
12.1528
 21
8.0534
 31
0
  0
LINE
  8
LAYER1
  6
CONTINUOUS
 62
     7
 10
11.9306
 20
7.97
 30
0
 11
12.0139
 21
8.0534
 31
0
  0
LINE
  8
LAYER1
  6
CONTINUOUS
 62
     7
 10
11.8056
 20
7.97
 30
0
 11
11.8889
 21
8.0534
 31
0
  0
LINE
  8
LAYER1
  6
CONTINUOUS
 62
     7
 10
11.6667
 20
7.97
 30
0
 11
11.75
 21
8.0534
 31
0
  0
LINE
  8
LAYER1
  6
CONTINUOUS
 62
     7
 10
11.5278
 20
7.97
 30
0
 11
11.6111
 21
8.0534
 31
0
  0
LINE
  8
LAYER1
  6
CONTINUOUS
 62
     7
 10
11.4028
 20
7.97
 30
0
 11
11.4861
 21
8.0534
 31
0
  0
LINE
  8
LAYER1
  6
CONTINUOUS
 62
     7
 10
11.2639
 20
7.97
 30
0
 11
11.3472
 21
8.0534
 31
0
  0
LINE
  8
LAYER1
  6
CONTINUOUS
 62
     7
 10
11.1389
 20
7.97
 30
0
 11
11.2222
 21
8.0534
 31
0
  0
LINE
  8
LAYER1
  6
CONTINUOUS
 62
     7
 10
11
 20
7.97
 30
0
 11
11.0833
 21
8.0534
 31
0
  0
LINE
  8
LAYER1
  6
CONTINUOUS
 62
     7
 10
10.875
 20
7.97
 30
0
 11
10.9583
 21
8.0534
 31
0
  0
LINE
  8
LAYER1
  6
CONTINUOUS
 62
     7
 10
10.7361
 20
7.97
 30
0
 11
10.8194
 21
8.0534
 31
0
  0
LINE
  8
LAYER1
  6
CONTINUOUS
 62
     7
 10
10.6111
 20
7.97
 30
0
 11
10.6944
 21
8.0534
 31
0
  0
LINE
  8
LAYER1
  6
CONTINUOUS
 62
     7
 10
10.4722
 20
7.97
 30
0
 11
10.5556
 21
8.0534
 31
0
  0
LINE
  8
LAYER1
  6
CONTINUOUS
 62
     7
 10
10.3333
 20
7.97
 30
0
 11
10.4167
 21
8.0534
 31
0
  0
LINE
  8
LAYER1
  6
CONTINUOUS
 62
     7
 10
10.2083
 20
7.97
 30
0
 11
10.2917
 21
8.0534
 31
0
  0
LINE
  8
LAYER1
  6
CONTINUOUS
 62
     7
 10
10.0694
 20
7.97
 30
0
 11
10.1528
 21
8.0534
 31
0
  0
LINE
  8
LAYER1
  6
CONTINUOUS
 62
     7
 10
9.9444
 20
7.97
 30
0
 11
10.0278
 21
8.0534
 31
0
  0
LINE
  8
LAYER1
  6
CONTINUOUS
 62
     7
 10
9.8056
 20
7.97
 30
0
 11
9.8889
 21
8.0534
 31
0
  0
LINE
  8
LAYER1
  6
CONTINUOUS
 62
     7
 10
9.6806
 20
7.97
 30
0
 11
9.7639
 21
8.0534
 31
0
  0
LINE
  8
LAYER1
  6
CONTINUOUS
 62
     7
 10
13.0417
 20
7.97
 30
0
 11
13.125
 21
8.0534
 31
0
  0
LINE
  8
LAYER1
  6
CONTINUOUS
 62
     7
 10
12.9028
 20
7.97
 30
0
 11
12.9861
 21
8.0534
 31
0
  0
LINE
  8
LAYER1
  6
CONTINUOUS
 62
     7
 10
12.7778
 20
7.97
 30
0
 11
12.8611
 21
8.0534
 31
0
  0
LINE
  8
LAYER1
  6
CONTINUOUS
 62
     7
 10
12.6389
 20
7.97
 30
0
 11
12.7222
 21
8.0534
 31
0
  0
LINE
  8
LAYER1
  6
CONTINUOUS
 62
     7
 10
12.5139
 20
7.97
 30
0
 11
12.5972
 21
8.0534
 31
0
  0
LINE
  8
LAYER1
  6
CONTINUOUS
 62
     7
 10
12.375
 20
7.97
 30
0
 11
12.4583
 21
8.0534
 31
0
  0
LINE
  8
LAYER1
  6
CONTINUOUS
 62
     7
 10
12.2361
 20
7.97
 30
0
 11
12.3194
 21
8.0534
 31
0
  0
LINE
  8
LAYER1
  6
CONTINUOUS
 62
     7
 10
12.1111
 20
7.97
 30
0
 11
12.1944
 21
8.0534
 31
0
  0
LINE
  8
LAYER1
  6
CONTINUOUS
 62
     7
 10
11.9722
 20
7.97
 30
0
 11
12.0556
 21
8.0534
 31
0
  0
LINE
  8
LAYER1
  6
CONTINUOUS
 62
     7
 10
11.8472
 20
7.97
 30
0
 11
11.9306
 21
8.0534
 31
0
  0
LINE
  8
LAYER1
  6
CONTINUOUS
 62
     7
 10
11.7083
 20
7.97
 30
0
 11
11.7917
 21
8.0534
 31
0
  0
LINE
  8
LAYER1
  6
CONTINUOUS
 62
     7
 10
11.5833
 20
7.97
 30
0
 11
11.6667
 21
8.0534
 31
0
  0
LINE
  8
LAYER1
  6
CONTINUOUS
 62
     7
 10
11.4444
 20
7.97
 30
0
 11
11.5278
 21
8.0534
 31
0
  0
LINE
  8
LAYER1
  6
CONTINUOUS
 62
     7
 10
11.3056
 20
7.97
 30
0
 11
11.3889
 21
8.0534
 31
0
  0
LINE
  8
LAYER1
  6
CONTINUOUS
 62
     7
 10
11.1806
 20
7.97
 30
0
 11
11.2639
 21
8.0534
 31
0
  0
LINE
  8
LAYER1
  6
CONTINUOUS
 62
     7
 10
11.0417
 20
7.97
 30
0
 11
11.125
 21
8.0534
 31
0
  0
LINE
  8
LAYER1
  6
CONTINUOUS
 62
     7
 10
10.9167
 20
7.97
 30
0
 11
11
 21
8.0534
 31
0
  0
LINE
  8
LAYER1
  6
CONTINUOUS
 62
     7
 10
10.7778
 20
7.97
 30
0
 11
10.8611
 21
8.0534
 31
0
  0
LINE
  8
LAYER1
  6
CONTINUOUS
 62
     7
 10
10.6528
 20
7.97
 30
0
 11
10.7361
 21
8.0534
 31
0
  0
LINE
  8
LAYER1
  6
CONTINUOUS
 62
     7
 10
10.5139
 20
7.97
 30
0
 11
10.5972
 21
8.0534
 31
0
  0
LINE
  8
LAYER1
  6
CONTINUOUS
 62
     7
 10
10.3889
 20
7.97
 30
0
 11
10.4722
 21
8.0534
 31
0
  0
LINE
  8
LAYER1
  6
CONTINUOUS
 62
     7
 10
10.25
 20
7.97
 30
0
 11
10.3333
 21
8.0534
 31
0
  0
LINE
  8
LAYER1
  6
CONTINUOUS
 62
     7
 10
10.1111
 20
7.97
 30
0
 11
10.1944
 21
8.0534
 31
0
  0
LINE
  8
LAYER1
  6
CONTINUOUS
 62
     7
 10
9.9861
 20
7.97
 30
0
 11
10.0694
 21
8.0534
 31
0
  0
LINE
  8
LAYER1
  6
CONTINUOUS
 62
     7
 10
9.8472
 20
7.97
 30
0
 11
9.9306
 21
8.0534
 31
0
  0
LINE
  8
LAYER1
  6
CONTINUOUS
 62
     7
 10
9.7222
 20
7.97
 30
0
 11
9.8056
 21
8.0534
 31
0
  0
LINE
  8
LAYER1
  6
CONTINUOUS
 62
     7
 10
9.6528
 20
7.8589
 30
0
 11
9.6806
 21
7.8867
 31
0
  0
LINE
  8
LAYER1
  6
CONTINUOUS
 62
     7
 10
9.6528
 20
7.8173
 30
0
 11
9.7222
 21
7.8867
 31
0
  0
LINE
  8
LAYER1
  6
CONTINUOUS
 62
     7
 10
9.6528
 20
7.8867
 30
0
 11
9.6528
 21
7.8034
 31
0
  0
LINE
  8
LAYER1
  6
CONTINUOUS
 62
     7
 10
9.6528
 20
8.0534
 30
0
 11
9.6528
 21
7.97
 31
0
  0
LINE
  8
LAYER1
  6
CONTINUOUS
 62
     7
 10
9.6528
 20
8.0534
 30
0
 11
13.2083
 21
8.0534
 31
0
  0
LINE
  8
LAYER1
  6
CONTINUOUS
 62
     7
 10
9.6528
 20
7.8034
 30
0
 11
13.2083
 21
7.8034
 31
0
  0
LINE
  8
LAYER1
  6
CONTINUOUS
 62
     7
 10
13.125
 20
7.97
 30
0
 11
13.2083
 21
8.0534
 31
0
  0
LINE
  8
LAYER1
  6
CONTINUOUS
 62
     7
 10
13.1667
 20
7.97
 30
0
 11
13.2083
 21
8.0117
 31
0
  0
LINE
  8
LAYER1
  6
CONTINUOUS
 62
     7
 10
13.1806
 20
7.8034
 30
0
 11
13.2083
 21
7.8312
 31
0
  0
LINE
  8
LAYER1
  6
CONTINUOUS
 62
     7
 10
13.2083
 20
7.8034
 30
0
 11
13.2083
 21
7.8867
 31
0
  0
LINE
  8
LAYER1
  6
CONTINUOUS
 62
     7
 10
13.2083
 20
8.0534
 30
0
 11
13.2083
 21
7.97
 31
0
  0
LINE
  8
LAYER1
  6
CONTINUOUS
 62
     7
 10
9.4167
 20
7.8867
 30
0
 11
13.4722
 21
7.8867
 31
0
  0
LINE
  8
LAYER1
  6
CONTINUOUS
 62
     7
 10
9.4167
 20
7.97
 30
0
 11
13.4722
 21
7.97
 31
0
  0
ENDBLK
  8
LAYER1
  0
BLOCK
  8
LAYER1
  2
Group50
 70
     0
 10
0
 20
0
 30
0
  0
POLYLINE
  8
LAYER1
  6
CONTINUOUS
 62
     7
 66
     1
 70
     0
 40
0.0039
 41
0.0039
  0
VERTEX
  8
LAYER1
 10
10.2917
 20
7.7964
 30
0
 70
     0
  0
VERTEX
  8
LAYER1
 10
10.289
 20
7.77
 30
0
 70
     0
  0
VERTEX
  8
LAYER1
 10
10.2812
 20
7.7453
 30
0
 70
     0
  0
VERTEX
  8
LAYER1
 10
10.269
 20
7.7229
 30
0
 70
     0
  0
VERTEX
  8
LAYER1
 10
10.2528
 20
7.7033
 30
0
 70
     0
  0
VERTEX
  8
LAYER1
 10
10.2333
 20
7.6872
 30
0
 70
     0
  0
VERTEX
  8
LAYER1
 10
10.2109
 20
7.6749
 30
0
 70
     0
  0
VERTEX
  8
LAYER1
 10
10.1862
 20
7.6672
 30
0
 70
     0
  0
VERTEX
  8
LAYER1
 10
10.1597
 20
7.6645
 30
0
 70
     0
  0
VERTEX
  8
LAYER1
 10
10.1597
 20
7.6645
 30
0
 70
     0
  0
VERTEX
  8
LAYER1
 10
10.1333
 20
7.6672
 30
0
 70
     0
  0
VERTEX
  8
LAYER1
 10
10.1086
 20
7.6749
 30
0
 70
     0
  0
VERTEX
  8
LAYER1
 10
10.0862
 20
7.6872
 30
0
 70
     0
  0
VERTEX
  8
LAYER1
 10
10.0666
 20
7.7033
 30
0
 70
     0
  0
VERTEX
  8
LAYER1
 10
10.0504
 20
7.7229
 30
0
 70
     0
  0
VERTEX
  8
LAYER1
 10
10.0382
 20
7.7453
 30
0
 70
     0
  0
VERTEX
  8
LAYER1
 10
10.0305
 20
7.77
 30
0
 70
     0
  0
VERTEX
  8
LAYER1
 10
10.0278
 20
7.7964
 30
0
 70
     0
  0
SEQEND
  0
ENDBLK
  8
LAYER1
  0
BLOCK
  8
LAYER1
  2
Group51
 70
     0
 10
0
 20
0
 30
0
  0
LINE
  8
LAYER1
  6
CONTINUOUS
 62
     7
 10
13.4722
 20
7.8867
 30
0
 11
13.4722
 21
7.97
 31
0
  0
POLYLINE
  8
LAYER1
  6
CONTINUOUS
 62
     7
 66
     1
 70
     0
 40
0.0039
 41
0.0039
  0
VERTEX
  8
LAYER1
 10
10.0139
 20
8.1089
 30
0
 70
     0
  0
VERTEX
  8
LAYER1
 10
10.3194
 20
8.1089
 30
0
 70
     0
  0
VERTEX
  8
LAYER1
 10
10.3194
 20
8.0534
 30
0
 70
     0
  0
VERTEX
  8
LAYER1
 10
10.0139
 20
8.0534
 30
0
 70
     0
  0
VERTEX
  8
LAYER1
 10
10.0139
 20
8.1089
 30
0
 70
     0
  0
SEQEND
  0
INSERT
  8
LAYER1
  2
Group50
 10
0
 20
0
 30
0
  0
LINE
  8
LAYER1
  6
CONTINUOUS
 62
     7
 10
10.0278
 20
7.8034
 30
0
 11
10.2778
 21
7.8034
 31
0
  0
POLYLINE
  8
LAYER1
  6
CONTINUOUS
 62
     7
 66
     1
 70
     0
 40
0.0039
 41
0.0039
  0
VERTEX
  8
LAYER1
 10
10.0972
 20
8.0534
 30
0
 70
     0
  0
VERTEX
  8
LAYER1
 10
10.2361
 20
8.0534
 30
0
 70
     0
  0
VERTEX
  8
LAYER1
 10
10.2361
 20
7.7895
 30
0
 70
     0
  0
VERTEX
  8
LAYER1
 10
10.0972
 20
7.7895
 30
0
 70
     0
  0
VERTEX
  8
LAYER1
 10
10.0972
 20
8.0534
 30
0
 70
     0
  0
SEQEND
  0
ENDBLK
  8
LAYER1
  0
BLOCK
  8
LAYER1
  2
Group52
 70
     0
 10
0
 20
0
 30
0
  0
POLYLINE
  8
LAYER1
  6
CONTINUOUS
 62
     7
 66
     1
 70
     0
 40
0.0039
 41
0.0039
  0
VERTEX
  8
LAYER1
 10
11.2778
 20
8.0464
 30
0
 70
     0
  0
VERTEX
  8
LAYER1
 10
11.2805
 20
8.0729
 30
0
 70
     0
  0
VERTEX
  8
LAYER1
 10
11.2882
 20
8.0976
 30
0
 70
     0
  0
VERTEX
  8
LAYER1
 10
11.3004
 20
8.12
 30
0
 70
     0
  0
VERTEX
  8
LAYER1
 10
11.3166
 20
8.1396
 30
0
 70
     0
  0
VERTEX
  8
LAYER1
 10
11.3362
 20
8.1557
 30
0
 70
     0
  0
VERTEX
  8
LAYER1
 10
11.3586
 20
8.1679
 30
0
 70
     0
  0
VERTEX
  8
LAYER1
 10
11.3833
 20
8.1757
 30
0
 70
     0
  0
VERTEX
  8
LAYER1
 10
11.4097
 20
8.1784
 30
0
 70
     0
  0
VERTEX
  8
LAYER1
 10
11.4097
 20
8.1784
 30
0
 70
     0
  0
VERTEX
  8
LAYER1
 10
11.4362
 20
8.1757
 30
0
 70
     0
  0
VERTEX
  8
LAYER1
 10
11.4609
 20
8.1679
 30
0
 70
     0
  0
VERTEX
  8
LAYER1
 10
11.4833
 20
8.1557
 30
0
 70
     0
  0
VERTEX
  8
LAYER1
 10
11.5028
 20
8.1396
 30
0
 70
     0
  0
VERTEX
  8
LAYER1
 10
11.519
 20
8.12
 30
0
 70
     0
  0
VERTEX
  8
LAYER1
 10
11.5312
 20
8.0976
 30
0
 70
     0
  0
VERTEX
  8
LAYER1
 10
11.539
 20
8.0729
 30
0
 70
     0
  0
VERTEX
  8
LAYER1
 10
11.5417
 20
8.0464
 30
0
 70
     0
  0
SEQEND
  0
ENDBLK
  8
LAYER1
  0
BLOCK
  8
LAYER1
  2
Group53
 70
     0
 10
0
 20
0
 30
0
  0
POLYLINE
  8
LAYER1
  6
CONTINUOUS
 62
     7
 66
     1
 70
     0
 40
0.0039
 41
0.0039
  0
VERTEX
  8
LAYER1
 10
11.2639
 20
7.8034
 30
0
 70
     0
  0
VERTEX
  8
LAYER1
 10
11.5694
 20
7.8034
 30
0
 70
     0
  0
VERTEX
  8
LAYER1
 10
11.5694
 20
7.7478
 30
0
 70
     0
  0
VERTEX
  8
LAYER1
 10
11.2639
 20
7.7478
 30
0
 70
     0
  0
VERTEX
  8
LAYER1
 10
11.2639
 20
7.8034
 30
0
 70
     0
  0
SEQEND
  0
INSERT
  8
LAYER1
  2
Group52
 10
0
 20
0
 30
0
  0
LINE
  8
LAYER1
  6
CONTINUOUS
 62
     7
 10
11.2778
 20
8.0534
 30
0
 11
11.5278
 21
8.0534
 31
0
  0
POLYLINE
  8
LAYER1
  6
CONTINUOUS
 62
     7
 66
     1
 70
     0
 40
0.0039
 41
0.0039
  0
VERTEX
  8
LAYER1
 10
11.3472
 20
8.0534
 30
0
 70
     0
  0
VERTEX
  8
LAYER1
 10
11.4861
 20
8.0534
 30
0
 70
     0
  0
VERTEX
  8
LAYER1
 10
11.4861
 20
7.7895
 30
0
 70
     0
  0
VERTEX
  8
LAYER1
 10
11.3472
 20
7.7895
 30
0
 70
     0
  0
VERTEX
  8
LAYER1
 10
11.3472
 20
8.0534
 30
0
 70
     0
  0
SEQEND
  0
ENDBLK
  8
LAYER1
  0
BLOCK
  8
LAYER1
  2
Group54
 70
     0
 10
0
 20
0
 30
0
  0
POLYLINE
  8
LAYER1
  6
CONTINUOUS
 62
     7
 66
     1
 70
     0
 40
0.0039
 41
0.0039
  0
VERTEX
  8
LAYER1
 10
12.5139
 20
7.8034
 30
0
 70
     0
  0
VERTEX
  8
LAYER1
 10
12.8194
 20
7.8034
 30
0
 70
     0
  0
VERTEX
  8
LAYER1
 10
12.8194
 20
7.7478
 30
0
 70
     0
  0
VERTEX
  8
LAYER1
 10
12.5139
 20
7.7478
 30
0
 70
     0
  0
VERTEX
  8
LAYER1
 10
12.5139
 20
7.8034
 30
0
 70
     0
  0
SEQEND
  0
POLYLINE
  8
LAYER1
  6
CONTINUOUS
 62
     7
 66
     1
 70
     0
 40
0.0039
 41
0.0039
  0
VERTEX
  8
LAYER1
 10
12.5972
 20
8.0534
 30
0
 70
     0
  0
VERTEX
  8
LAYER1
 10
12.7361
 20
8.0534
 30
0
 70
     0
  0
VERTEX
  8
LAYER1
 10
12.7361
 20
7.7895
 30
0
 70
     0
  0
VERTEX
  8
LAYER1
 10
12.5972
 20
7.7895
 30
0
 70
     0
  0
VERTEX
  8
LAYER1
 10
12.5972
 20
8.0534
 30
0
 70
     0
  0
SEQEND
  0
POLYLINE
  8
LAYER1
  6
CONTINUOUS
 62
     7
 66
     1
 70
     0
 40
0.0039
 41
0.0039
  0
VERTEX
  8
LAYER1
 10
12.5139
 20
8.1089
 30
0
 70
     0
  0
VERTEX
  8
LAYER1
 10
12.8194
 20
8.1089
 30
0
 70
     0
  0
VERTEX
  8
LAYER1
 10
12.8194
 20
8.0534
 30
0
 70
     0
  0
VERTEX
  8
LAYER1
 10
12.5139
 20
8.0534
 30
0
 70
     0
  0
VERTEX
  8
LAYER1
 10
12.5139
 20
8.1089
 30
0
 70
     0
  0
SEQEND
  0
ENDBLK
  8
LAYER1
  0
BLOCK
  8
LAYER1
  2
Group55
 70
     0
 10
0
 20
0
 30
0
  0
LINE
  8
LAYER1
  6
CONTINUOUS
 62
     7
 10
8.8194
 20
4.9978
 30
0
 11
8.8194
 21
4.9145
 31
0
  0
LINE
  8
LAYER1
  6
CONTINUOUS
 62
     7
 10
14.0972
 20
4.9145
 30
0
 11
14.0139
 21
4.9978
 31
0
  0
LINE
  8
LAYER1
  6
CONTINUOUS
 62
     7
 10
13.9583
 20
4.9145
 30
0
 11
13.875
 21
4.9978
 31
0
  0
LINE
  8
LAYER1
  6
CONTINUOUS
 62
     7
 10
13.8333
 20
4.9145
 30
0
 11
13.75
 21
4.9978
 31
0
  0
LINE
  8
LAYER1
  6
CONTINUOUS
 62
     7
 10
13.6944
 20
4.9145
 30
0
 11
13.6111
 21
4.9978
 31
0
  0
LINE
  8
LAYER1
  6
CONTINUOUS
 62
     7
 10
13.5694
 20
4.9145
 30
0
 11
13.4861
 21
4.9978
 31
0
  0
LINE
  8
LAYER1
  6
CONTINUOUS
 62
     7
 10
13.4306
 20
4.9145
 30
0
 11
13.3472
 21
4.9978
 31
0
  0
LINE
  8
LAYER1
  6
CONTINUOUS
 62
     7
 10
13.2917
 20
4.9145
 30
0
 11
13.2083
 21
4.9978
 31
0
  0
LINE
  8
LAYER1
  6
CONTINUOUS
 62
     7
 10
13.1667
 20
4.9145
 30
0
 11
13.0833
 21
4.9978
 31
0
  0
LINE
  8
LAYER1
  6
CONTINUOUS
 62
     7
 10
13.0278
 20
4.9145
 30
0
 11
12.9444
 21
4.9978
 31
0
  0
LINE
  8
LAYER1
  6
CONTINUOUS
 62
     7
 10
12.9028
 20
4.9145
 30
0
 11
12.8194
 21
4.9978
 31
0
  0
LINE
  8
LAYER1
  6
CONTINUOUS
 62
     7
 10
12.7639
 20
4.9145
 30
0
 11
12.6806
 21
4.9978
 31
0
  0
LINE
  8
LAYER1
  6
CONTINUOUS
 62
     7
 10
12.6389
 20
4.9145
 30
0
 11
12.5556
 21
4.9978
 31
0
  0
LINE
  8
LAYER1
  6
CONTINUOUS
 62
     7
 10
12.5
 20
4.9145
 30
0
 11
12.4167
 21
4.9978
 31
0
  0
LINE
  8
LAYER1
  6
CONTINUOUS
 62
     7
 10
12.375
 20
4.9145
 30
0
 11
12.2917
 21
4.9978
 31
0
  0
LINE
  8
LAYER1
  6
CONTINUOUS
 62
     7
 10
12.2361
 20
4.9145
 30
0
 11
12.1528
 21
4.9978
 31
0
  0
LINE
  8
LAYER1
  6
CONTINUOUS
 62
     7
 10
12.0972
 20
4.9145
 30
0
 11
12.0139
 21
4.9978
 31
0
  0
LINE
  8
LAYER1
  6
CONTINUOUS
 62
     7
 10
11.9722
 20
4.9145
 30
0
 11
11.8889
 21
4.9978
 31
0
  0
LINE
  8
LAYER1
  6
CONTINUOUS
 62
     7
 10
11.8333
 20
4.9145
 30
0
 11
11.75
 21
4.9978
 31
0
  0
LINE
  8
LAYER1
  6
CONTINUOUS
 62
     7
 10
11.7083
 20
4.9145
 30
0
 11
11.625
 21
4.9978
 31
0
  0
LINE
  8
LAYER1
  6
CONTINUOUS
 62
     7
 10
11.5694
 20
4.9145
 30
0
 11
11.4861
 21
4.9978
 31
0
  0
LINE
  8
LAYER1
  6
CONTINUOUS
 62
     7
 10
11.4444
 20
4.9145
 30
0
 11
11.3611
 21
4.9978
 31
0
  0
LINE
  8
LAYER1
  6
CONTINUOUS
 62
     7
 10
11.3056
 20
4.9145
 30
0
 11
11.2222
 21
4.9978
 31
0
  0
LINE
  8
LAYER1
  6
CONTINUOUS
 62
     7
 10
11.1806
 20
4.9145
 30
0
 11
11.0972
 21
4.9978
 31
0
  0
LINE
  8
LAYER1
  6
CONTINUOUS
 62
     7
 10
11.0417
 20
4.9145
 30
0
 11
10.9583
 21
4.9978
 31
0
  0
LINE
  8
LAYER1
  6
CONTINUOUS
 62
     7
 10
10.9028
 20
4.9145
 30
0
 11
10.8194
 21
4.9978
 31
0
  0
LINE
  8
LAYER1
  6
CONTINUOUS
 62
     7
 10
10.7778
 20
4.9145
 30
0
 11
10.6944
 21
4.9978
 31
0
  0
LINE
  8
LAYER1
  6
CONTINUOUS
 62
     7
 10
10.6389
 20
4.9145
 30
0
 11
10.5556
 21
4.9978
 31
0
  0
LINE
  8
LAYER1
  6
CONTINUOUS
 62
     7
 10
10.5139
 20
4.9145
 30
0
 11
10.4306
 21
4.9978
 31
0
  0
LINE
  8
LAYER1
  6
CONTINUOUS
 62
     7
 10
10.375
 20
4.9145
 30
0
 11
10.2917
 21
4.9978
 31
0
  0
LINE
  8
LAYER1
  6
CONTINUOUS
 62
     7
 10
10.25
 20
4.9145
 30
0
 11
10.1667
 21
4.9978
 31
0
  0
LINE
  8
LAYER1
  6
CONTINUOUS
 62
     7
 10
10.1111
 20
4.9145
 30
0
 11
10.0278
 21
4.9978
 31
0
  0
LINE
  8
LAYER1
  6
CONTINUOUS
 62
     7
 10
9.9722
 20
4.9145
 30
0
 11
9.8889
 21
4.9978
 31
0
  0
LINE
  8
LAYER1
  6
CONTINUOUS
 62
     7
 10
9.8472
 20
4.9145
 30
0
 11
9.7639
 21
4.9978
 31
0
  0
LINE
  8
LAYER1
  6
CONTINUOUS
 62
     7
 10
9.7083
 20
4.9145
 30
0
 11
9.625
 21
4.9978
 31
0
  0
LINE
  8
LAYER1
  6
CONTINUOUS
 62
     7
 10
9.5833
 20
4.9145
 30
0
 11
9.5
 21
4.9978
 31
0
  0
LINE
  8
LAYER1
  6
CONTINUOUS
 62
     7
 10
9.4444
 20
4.9145
 30
0
 11
9.3611
 21
4.9978
 31
0
  0
LINE
  8
LAYER1
  6
CONTINUOUS
 62
     7
 10
9.3194
 20
4.9145
 30
0
 11
9.2361
 21
4.9978
 31
0
  0
LINE
  8
LAYER1
  6
CONTINUOUS
 62
     7
 10
9.1806
 20
4.9145
 30
0
 11
9.0972
 21
4.9978
 31
0
  0
LINE
  8
LAYER1
  6
CONTINUOUS
 62
     7
 10
9.0556
 20
4.9145
 30
0
 11
8.9722
 21
4.9978
 31
0
  0
LINE
  8
LAYER1
  6
CONTINUOUS
 62
     7
 10
8.9167
 20
4.9145
 30
0
 11
8.8333
 21
4.9978
 31
0
  0
LINE
  8
LAYER1
  6
CONTINUOUS
 62
     7
 10
14.1389
 20
4.9145
 30
0
 11
14.0556
 21
4.9978
 31
0
  0
LINE
  8
LAYER1
  6
CONTINUOUS
 62
     7
 10
14
 20
4.9145
 30
0
 11
13.9167
 21
4.9978
 31
0
  0
LINE
  8
LAYER1
  6
CONTINUOUS
 62
     7
 10
13.875
 20
4.9145
 30
0
 11
13.7917
 21
4.9978
 31
0
  0
LINE
  8
LAYER1
  6
CONTINUOUS
 62
     7
 10
13.7361
 20
4.9145
 30
0
 11
13.6528
 21
4.9978
 31
0
  0
LINE
  8
LAYER1
  6
CONTINUOUS
 62
     7
 10
13.6111
 20
4.9145
 30
0
 11
13.5278
 21
4.9978
 31
0
  0
LINE
  8
LAYER1
  6
CONTINUOUS
 62
     7
 10
13.4722
 20
4.9145
 30
0
 11
13.3889
 21
4.9978
 31
0
  0
LINE
  8
LAYER1
  6
CONTINUOUS
 62
     7
 10
13.3472
 20
4.9145
 30
0
 11
13.2639
 21
4.9978
 31
0
  0
LINE
  8
LAYER1
  6
CONTINUOUS
 62
     7
 10
13.2083
 20
4.9145
 30
0
 11
13.125
 21
4.9978
 31
0
  0
LINE
  8
LAYER1
  6
CONTINUOUS
 62
     7
 10
13.0833
 20
4.9145
 30
0
 11
13
 21
4.9978
 31
0
  0
LINE
  8
LAYER1
  6
CONTINUOUS
 62
     7
 10
12.9444
 20
4.9145
 30
0
 11
12.8611
 21
4.9978
 31
0
  0
LINE
  8
LAYER1
  6
CONTINUOUS
 62
     7
 10
12.8056
 20
4.9145
 30
0
 11
12.7222
 21
4.9978
 31
0
  0
LINE
  8
LAYER1
  6
CONTINUOUS
 62
     7
 10
12.6806
 20
4.9145
 30
0
 11
12.5972
 21
4.9978
 31
0
  0
LINE
  8
LAYER1
  6
CONTINUOUS
 62
     7
 10
12.5417
 20
4.9145
 30
0
 11
12.4583
 21
4.9978
 31
0
  0
LINE
  8
LAYER1
  6
CONTINUOUS
 62
     7
 10
12.4167
 20
4.9145
 30
0
 11
12.3333
 21
4.9978
 31
0
  0
LINE
  8
LAYER1
  6
CONTINUOUS
 62
     7
 10
12.2778
 20
4.9145
 30
0
 11
12.1944
 21
4.9978
 31
0
  0
LINE
  8
LAYER1
  6
CONTINUOUS
 62
     7
 10
12.1528
 20
4.9145
 30
0
 11
12.0694
 21
4.9978
 31
0
  0
LINE
  8
LAYER1
  6
CONTINUOUS
 62
     7
 10
12.0139
 20
4.9145
 30
0
 11
11.9306
 21
4.9978
 31
0
  0
LINE
  8
LAYER1
  6
CONTINUOUS
 62
     7
 10
11.875
 20
4.9145
 30
0
 11
11.7917
 21
4.9978
 31
0
  0
LINE
  8
LAYER1
  6
CONTINUOUS
 62
     7
 10
11.75
 20
4.9145
 30
0
 11
11.6667
 21
4.9978
 31
0
  0
LINE
  8
LAYER1
  6
CONTINUOUS
 62
     7
 10
11.6111
 20
4.9145
 30
0
 11
11.5278
 21
4.9978
 31
0
  0
LINE
  8
LAYER1
  6
CONTINUOUS
 62
     7
 10
11.4861
 20
4.9145
 30
0
 11
11.4028
 21
4.9978
 31
0
  0
LINE
  8
LAYER1
  6
CONTINUOUS
 62
     7
 10
11.3472
 20
4.9145
 30
0
 11
11.2639
 21
4.9978
 31
0
  0
LINE
  8
LAYER1
  6
CONTINUOUS
 62
     7
 10
11.2222
 20
4.9145
 30
0
 11
11.1389
 21
4.9978
 31
0
  0
LINE
  8
LAYER1
  6
CONTINUOUS
 62
     7
 10
11.0833
 20
4.9145
 30
0
 11
11
 21
4.9978
 31
0
  0
LINE
  8
LAYER1
  6
CONTINUOUS
 62
     7
 10
10.9583
 20
4.9145
 30
0
 11
10.875
 21
4.9978
 31
0
  0
LINE
  8
LAYER1
  6
CONTINUOUS
 62
     7
 10
10.8194
 20
4.9145
 30
0
 11
10.7361
 21
4.9978
 31
0
  0
LINE
  8
LAYER1
  6
CONTINUOUS
 62
     7
 10
10.6806
 20
4.9145
 30
0
 11
10.5972
 21
4.9978
 31
0
  0
LINE
  8
LAYER1
  6
CONTINUOUS
 62
     7
 10
10.5556
 20
4.9145
 30
0
 11
10.4722
 21
4.9978
 31
0
  0
LINE
  8
LAYER1
  6
CONTINUOUS
 62
     7
 10
10.4167
 20
4.9145
 30
0
 11
10.3333
 21
4.9978
 31
0
  0
LINE
  8
LAYER1
  6
CONTINUOUS
 62
     7
 10
10.2917
 20
4.9145
 30
0
 11
10.2083
 21
4.9978
 31
0
  0
LINE
  8
LAYER1
  6
CONTINUOUS
 62
     7
 10
10.1528
 20
4.9145
 30
0
 11
10.0694
 21
4.9978
 31
0
  0
LINE
  8
LAYER1
  6
CONTINUOUS
 62
     7
 10
10.0278
 20
4.9145
 30
0
 11
9.9444
 21
4.9978
 31
0
  0
LINE
  8
LAYER1
  6
CONTINUOUS
 62
     7
 10
9.8889
 20
4.9145
 30
0
 11
9.8056
 21
4.9978
 31
0
  0
LINE
  8
LAYER1
  6
CONTINUOUS
 62
     7
 10
9.75
 20
4.9145
 30
0
 11
9.6667
 21
4.9978
 31
0
  0
LINE
  8
LAYER1
  6
CONTINUOUS
 62
     7
 10
9.625
 20
4.9145
 30
0
 11
9.5417
 21
4.9978
 31
0
  0
LINE
  8
LAYER1
  6
CONTINUOUS
 62
     7
 10
9.4861
 20
4.9145
 30
0
 11
9.4028
 21
4.9978
 31
0
  0
LINE
  8
LAYER1
  6
CONTINUOUS
 62
     7
 10
9.3611
 20
4.9145
 30
0
 11
9.2778
 21
4.9978
 31
0
  0
LINE
  8
LAYER1
  6
CONTINUOUS
 62
     7
 10
9.2222
 20
4.9145
 30
0
 11
9.1389
 21
4.9978
 31
0
  0
LINE
  8
LAYER1
  6
CONTINUOUS
 62
     7
 10
9.0972
 20
4.9145
 30
0
 11
9.0139
 21
4.9978
 31
0
  0
LINE
  8
LAYER1
  6
CONTINUOUS
 62
     7
 10
8.9583
 20
4.9145
 30
0
 11
8.875
 21
4.9978
 31
0
  0
LINE
  8
LAYER1
  6
CONTINUOUS
 62
     7
 10
8.8333
 20
4.9145
 30
0
 11
8.8194
 21
4.9145
 31
0
  0
LINE
  8
LAYER1
  6
CONTINUOUS
 62
     7
 10
13.6528
 20
4.8312
 30
0
 11
13.7361
 21
4.9145
 31
0
  0
LINE
  8
LAYER1
  6
CONTINUOUS
 62
     7
 10
13.5139
 20
4.8312
 30
0
 11
13.5972
 21
4.9145
 31
0
  0
LINE
  8
LAYER1
  6
CONTINUOUS
 62
     7
 10
13.375
 20
4.8312
 30
0
 11
13.4583
 21
4.9145
 31
0
  0
LINE
  8
LAYER1
  6
CONTINUOUS
 62
     7
 10
13.25
 20
4.8312
 30
0
 11
13.3333
 21
4.9145
 31
0
  0
LINE
  8
LAYER1
  6
CONTINUOUS
 62
     7
 10
13.1111
 20
4.8312
 30
0
 11
13.1944
 21
4.9145
 31
0
  0
LINE
  8
LAYER1
  6
CONTINUOUS
 62
     7
 10
12.9861
 20
4.8312
 30
0
 11
13.0694
 21
4.9145
 31
0
  0
LINE
  8
LAYER1
  6
CONTINUOUS
 62
     7
 10
12.8472
 20
4.8312
 30
0
 11
12.9306
 21
4.9145
 31
0
  0
LINE
  8
LAYER1
  6
CONTINUOUS
 62
     7
 10
12.7222
 20
4.8312
 30
0
 11
12.8056
 21
4.9145
 31
0
  0
LINE
  8
LAYER1
  6
CONTINUOUS
 62
     7
 10
12.5833
 20
4.8312
 30
0
 11
12.6667
 21
4.9145
 31
0
  0
LINE
  8
LAYER1
  6
CONTINUOUS
 62
     7
 10
12.4444
 20
4.8312
 30
0
 11
12.5278
 21
4.9145
 31
0
  0
LINE
  8
LAYER1
  6
CONTINUOUS
 62
     7
 10
12.3194
 20
4.8312
 30
0
 11
12.4028
 21
4.9145
 31
0
  0
LINE
  8
LAYER1
  6
CONTINUOUS
 62
     7
 10
12.1806
 20
4.8312
 30
0
 11
12.2639
 21
4.9145
 31
0
  0
LINE
  8
LAYER1
  6
CONTINUOUS
 62
     7
 10
12.0556
 20
4.8312
 30
0
 11
12.1389
 21
4.9145
 31
0
  0
LINE
  8
LAYER1
  6
CONTINUOUS
 62
     7
 10
11.9167
 20
4.8312
 30
0
 11
12
 21
4.9145
 31
0
  0
LINE
  8
LAYER1
  6
CONTINUOUS
 62
     7
 10
11.7917
 20
4.8312
 30
0
 11
11.875
 21
4.9145
 31
0
  0
LINE
  8
LAYER1
  6
CONTINUOUS
 62
     7
 10
11.6528
 20
4.8312
 30
0
 11
11.7361
 21
4.9145
 31
0
  0
LINE
  8
LAYER1
  6
CONTINUOUS
 62
     7
 10
11.5278
 20
4.8312
 30
0
 11
11.6111
 21
4.9145
 31
0
  0
LINE
  8
LAYER1
  6
CONTINUOUS
 62
     7
 10
11.3889
 20
4.8312
 30
0
 11
11.4722
 21
4.9145
 31
0
  0
LINE
  8
LAYER1
  6
CONTINUOUS
 62
     7
 10
11.25
 20
4.8312
 30
0
 11
11.3333
 21
4.9145
 31
0
  0
LINE
  8
LAYER1
  6
CONTINUOUS
 62
     7
 10
11.125
 20
4.8312
 30
0
 11
11.2083
 21
4.9145
 31
0
  0
LINE
  8
LAYER1
  6
CONTINUOUS
 62
     7
 10
10.9861
 20
4.8312
 30
0
 11
11.0694
 21
4.9145
 31
0
  0
LINE
  8
LAYER1
  6
CONTINUOUS
 62
     7
 10
10.8611
 20
4.8312
 30
0
 11
10.9444
 21
4.9145
 31
0
  0
LINE
  8
LAYER1
  6
CONTINUOUS
 62
     7
 10
10.7222
 20
4.8312
 30
0
 11
10.8056
 21
4.9145
 31
0
  0
LINE
  8
LAYER1
  6
CONTINUOUS
 62
     7
 10
10.5972
 20
4.8312
 30
0
 11
10.6806
 21
4.9145
 31
0
  0
LINE
  8
LAYER1
  6
CONTINUOUS
 62
     7
 10
10.4583
 20
4.8312
 30
0
 11
10.5417
 21
4.9145
 31
0
  0
LINE
  8
LAYER1
  6
CONTINUOUS
 62
     7
 10
10.3194
 20
4.8312
 30
0
 11
10.4028
 21
4.9145
 31
0
  0
LINE
  8
LAYER1
  6
CONTINUOUS
 62
     7
 10
10.1944
 20
4.8312
 30
0
 11
10.2778
 21
4.9145
 31
0
  0
LINE
  8
LAYER1
  6
CONTINUOUS
 62
     7
 10
10.0556
 20
4.8312
 30
0
 11
10.1389
 21
4.9145
 31
0
  0
LINE
  8
LAYER1
  6
CONTINUOUS
 62
     7
 10
9.9306
 20
4.8312
 30
0
 11
10.0139
 21
4.9145
 31
0
  0
LINE
  8
LAYER1
  6
CONTINUOUS
 62
     7
 10
9.7917
 20
4.8312
 30
0
 11
9.875
 21
4.9145
 31
0
  0
LINE
  8
LAYER1
  6
CONTINUOUS
 62
     7
 10
9.6667
 20
4.8312
 30
0
 11
9.75
 21
4.9145
 31
0
  0
LINE
  8
LAYER1
  6
CONTINUOUS
 62
     7
 10
9.5278
 20
4.8312
 30
0
 11
9.6111
 21
4.9145
 31
0
  0
LINE
  8
LAYER1
  6
CONTINUOUS
 62
     7
 10
9.4028
 20
4.8312
 30
0
 11
9.4861
 21
4.9145
 31
0
  0
LINE
  8
LAYER1
  6
CONTINUOUS
 62
     7
 10
9.2639
 20
4.8312
 30
0
 11
9.3472
 21
4.9145
 31
0
  0
LINE
  8
LAYER1
  6
CONTINUOUS
 62
     7
 10
9.125
 20
4.8312
 30
0
 11
9.2083
 21
4.9145
 31
0
  0
LINE
  8
LAYER1
  6
CONTINUOUS
 62
     7
 10
13.6944
 20
4.8312
 30
0
 11
13.7778
 21
4.9145
 31
0
  0
LINE
  8
LAYER1
  6
CONTINUOUS
 62
     7
 10
13.5556
 20
4.8312
 30
0
 11
13.6389
 21
4.9145
 31
0
  0
LINE
  8
LAYER1
  6
CONTINUOUS
 62
     7
 10
13.4306
 20
4.8312
 30
0
 11
13.5139
 21
4.9145
 31
0
  0
LINE
  8
LAYER1
  6
CONTINUOUS
 62
     7
 10
13.2917
 20
4.8312
 30
0
 11
13.375
 21
4.9145
 31
0
  0
LINE
  8
LAYER1
  6
CONTINUOUS
 62
     7
 10
13.1528
 20
4.8312
 30
0
 11
13.2361
 21
4.9145
 31
0
  0
LINE
  8
LAYER1
  6
CONTINUOUS
 62
     7
 10
13.0278
 20
4.8312
 30
0
 11
13.1111
 21
4.9145
 31
0
  0
LINE
  8
LAYER1
  6
CONTINUOUS
 62
     7
 10
12.8889
 20
4.8312
 30
0
 11
12.9722
 21
4.9145
 31
0
  0
LINE
  8
LAYER1
  6
CONTINUOUS
 62
     7
 10
12.7639
 20
4.8312
 30
0
 11
12.8472
 21
4.9145
 31
0
  0
LINE
  8
LAYER1
  6
CONTINUOUS
 62
     7
 10
12.625
 20
4.8312
 30
0
 11
12.7083
 21
4.9145
 31
0
  0
LINE
  8
LAYER1
  6
CONTINUOUS
 62
     7
 10
12.5
 20
4.8312
 30
0
 11
12.5833
 21
4.9145
 31
0
  0
LINE
  8
LAYER1
  6
CONTINUOUS
 62
     7
 10
12.3611
 20
4.8312
 30
0
 11
12.4444
 21
4.9145
 31
0
  0
LINE
  8
LAYER1
  6
CONTINUOUS
 62
     7
 10
12.2361
 20
4.8312
 30
0
 11
12.3194
 21
4.9145
 31
0
  0
LINE
  8
LAYER1
  6
CONTINUOUS
 62
     7
 10
12.0972
 20
4.8312
 30
0
 11
12.1806
 21
4.9145
 31
0
  0
LINE
  8
LAYER1
  6
CONTINUOUS
 62
     7
 10
11.9583
 20
4.8312
 30
0
 11
12.0417
 21
4.9145
 31
0
  0
LINE
  8
LAYER1
  6
CONTINUOUS
 62
     7
 10
11.8333
 20
4.8312
 30
0
 11
11.9167
 21
4.9145
 31
0
  0
LINE
  8
LAYER1
  6
CONTINUOUS
 62
     7
 10
11.6944
 20
4.8312
 30
0
 11
11.7778
 21
4.9145
 31
0
  0
LINE
  8
LAYER1
  6
CONTINUOUS
 62
     7
 10
11.5694
 20
4.8312
 30
0
 11
11.6528
 21
4.9145
 31
0
  0
LINE
  8
LAYER1
  6
CONTINUOUS
 62
     7
 10
11.4306
 20
4.8312
 30
0
 11
11.5139
 21
4.9145
 31
0
  0
LINE
  8
LAYER1
  6
CONTINUOUS
 62
     7
 10
11.3056
 20
4.8312
 30
0
 11
11.3889
 21
4.9145
 31
0
  0
LINE
  8
LAYER1
  6
CONTINUOUS
 62
     7
 10
11.1667
 20
4.8312
 30
0
 11
11.25
 21
4.9145
 31
0
  0
LINE
  8
LAYER1
  6
CONTINUOUS
 62
     7
 10
11.0278
 20
4.8312
 30
0
 11
11.1111
 21
4.9145
 31
0
  0
LINE
  8
LAYER1
  6
CONTINUOUS
 62
     7
 10
10.9028
 20
4.8312
 30
0
 11
10.9861
 21
4.9145
 31
0
  0
LINE
  8
LAYER1
  6
CONTINUOUS
 62
     7
 10
10.7639
 20
4.8312
 30
0
 11
10.8472
 21
4.9145
 31
0
  0
LINE
  8
LAYER1
  6
CONTINUOUS
 62
     7
 10
10.6389
 20
4.8312
 30
0
 11
10.7222
 21
4.9145
 31
0
  0
LINE
  8
LAYER1
  6
CONTINUOUS
 62
     7
 10
10.5
 20
4.8312
 30
0
 11
10.5833
 21
4.9145
 31
0
  0
LINE
  8
LAYER1
  6
CONTINUOUS
 62
     7
 10
10.375
 20
4.8312
 30
0
 11
10.4583
 21
4.9145
 31
0
  0
LINE
  8
LAYER1
  6
CONTINUOUS
 62
     7
 10
10.2361
 20
4.8312
 30
0
 11
10.3194
 21
4.9145
 31
0
  0
LINE
  8
LAYER1
  6
CONTINUOUS
 62
     7
 10
10.1111
 20
4.8312
 30
0
 11
10.1944
 21
4.9145
 31
0
  0
LINE
  8
LAYER1
  6
CONTINUOUS
 62
     7
 10
9.9722
 20
4.8312
 30
0
 11
10.0556
 21
4.9145
 31
0
  0
LINE
  8
LAYER1
  6
CONTINUOUS
 62
     7
 10
9.8333
 20
4.8312
 30
0
 11
9.9167
 21
4.9145
 31
0
  0
LINE
  8
LAYER1
  6
CONTINUOUS
 62
     7
 10
9.7083
 20
4.8312
 30
0
 11
9.7917
 21
4.9145
 31
0
  0
LINE
  8
LAYER1
  6
CONTINUOUS
 62
     7
 10
9.5694
 20
4.8312
 30
0
 11
9.6528
 21
4.9145
 31
0
  0
LINE
  8
LAYER1
  6
CONTINUOUS
 62
     7
 10
9.4444
 20
4.8312
 30
0
 11
9.5278
 21
4.9145
 31
0
  0
LINE
  8
LAYER1
  6
CONTINUOUS
 62
     7
 10
9.3056
 20
4.8312
 30
0
 11
9.3889
 21
4.9145
 31
0
  0
LINE
  8
LAYER1
  6
CONTINUOUS
 62
     7
 10
9.1806
 20
4.8312
 30
0
 11
9.2639
 21
4.9145
 31
0
  0
LINE
  8
LAYER1
  6
CONTINUOUS
 62
     7
 10
13.7222
 20
4.9978
 30
0
 11
13.8056
 21
5.0812
 31
0
  0
LINE
  8
LAYER1
  6
CONTINUOUS
 62
     7
 10
13.5972
 20
4.9978
 30
0
 11
13.6806
 21
5.0812
 31
0
  0
LINE
  8
LAYER1
  6
CONTINUOUS
 62
     7
 10
13.4583
 20
4.9978
 30
0
 11
13.5417
 21
5.0812
 31
0
  0
LINE
  8
LAYER1
  6
CONTINUOUS
 62
     7
 10
13.3194
 20
4.9978
 30
0
 11
13.4028
 21
5.0812
 31
0
  0
LINE
  8
LAYER1
  6
CONTINUOUS
 62
     7
 10
13.1944
 20
4.9978
 30
0
 11
13.2778
 21
5.0812
 31
0
  0
LINE
  8
LAYER1
  6
CONTINUOUS
 62
     7
 10
13.0556
 20
4.9978
 30
0
 11
13.1389
 21
5.0812
 31
0
  0
LINE
  8
LAYER1
  6
CONTINUOUS
 62
     7
 10
12.9306
 20
4.9978
 30
0
 11
13.0139
 21
5.0812
 31
0
  0
LINE
  8
LAYER1
  6
CONTINUOUS
 62
     7
 10
12.7917
 20
4.9978
 30
0
 11
12.875
 21
5.0812
 31
0
  0
LINE
  8
LAYER1
  6
CONTINUOUS
 62
     7
 10
12.6667
 20
4.9978
 30
0
 11
12.75
 21
5.0812
 31
0
  0
LINE
  8
LAYER1
  6
CONTINUOUS
 62
     7
 10
12.5278
 20
4.9978
 30
0
 11
12.6111
 21
5.0812
 31
0
  0
LINE
  8
LAYER1
  6
CONTINUOUS
 62
     7
 10
12.4028
 20
4.9978
 30
0
 11
12.4861
 21
5.0812
 31
0
  0
LINE
  8
LAYER1
  6
CONTINUOUS
 62
     7
 10
12.2639
 20
4.9978
 30
0
 11
12.3472
 21
5.0812
 31
0
  0
LINE
  8
LAYER1
  6
CONTINUOUS
 62
     7
 10
12.125
 20
4.9978
 30
0
 11
12.2083
 21
5.0812
 31
0
  0
LINE
  8
LAYER1
  6
CONTINUOUS
 62
     7
 10
12
 20
4.9978
 30
0
 11
12.0833
 21
5.0812
 31
0
  0
LINE
  8
LAYER1
  6
CONTINUOUS
 62
     7
 10
11.8611
 20
4.9978
 30
0
 11
11.9444
 21
5.0812
 31
0
  0
LINE
  8
LAYER1
  6
CONTINUOUS
 62
     7
 10
11.7361
 20
4.9978
 30
0
 11
11.8194
 21
5.0812
 31
0
  0
LINE
  8
LAYER1
  6
CONTINUOUS
 62
     7
 10
11.5972
 20
4.9978
 30
0
 11
11.6806
 21
5.0812
 31
0
  0
LINE
  8
LAYER1
  6
CONTINUOUS
 62
     7
 10
11.4722
 20
4.9978
 30
0
 11
11.5556
 21
5.0812
 31
0
  0
LINE
  8
LAYER1
  6
CONTINUOUS
 62
     7
 10
11.3333
 20
4.9978
 30
0
 11
11.4167
 21
5.0812
 31
0
  0
LINE
  8
LAYER1
  6
CONTINUOUS
 62
     7
 10
11.1944
 20
4.9978
 30
0
 11
11.2778
 21
5.0812
 31
0
  0
LINE
  8
LAYER1
  6
CONTINUOUS
 62
     7
 10
11.0694
 20
4.9978
 30
0
 11
11.1528
 21
5.0812
 31
0
  0
LINE
  8
LAYER1
  6
CONTINUOUS
 62
     7
 10
10.9306
 20
4.9978
 30
0
 11
11.0139
 21
5.0812
 31
0
  0
LINE
  8
LAYER1
  6
CONTINUOUS
 62
     7
 10
10.8056
 20
4.9978
 30
0
 11
10.8889
 21
5.0812
 31
0
  0
LINE
  8
LAYER1
  6
CONTINUOUS
 62
     7
 10
10.6667
 20
4.9978
 30
0
 11
10.75
 21
5.0812
 31
0
  0
LINE
  8
LAYER1
  6
CONTINUOUS
 62
     7
 10
10.5417
 20
4.9978
 30
0
 11
10.625
 21
5.0812
 31
0
  0
LINE
  8
LAYER1
  6
CONTINUOUS
 62
     7
 10
10.4028
 20
4.9978
 30
0
 11
10.4861
 21
5.0812
 31
0
  0
LINE
  8
LAYER1
  6
CONTINUOUS
 62
     7
 10
10.2778
 20
4.9978
 30
0
 11
10.3611
 21
5.0812
 31
0
  0
LINE
  8
LAYER1
  6
CONTINUOUS
 62
     7
 10
10.1389
 20
4.9978
 30
0
 11
10.2222
 21
5.0812
 31
0
  0
LINE
  8
LAYER1
  6
CONTINUOUS
 62
     7
 10
10
 20
4.9978
 30
0
 11
10.0833
 21
5.0812
 31
0
  0
LINE
  8
LAYER1
  6
CONTINUOUS
 62
     7
 10
9.875
 20
4.9978
 30
0
 11
9.9583
 21
5.0812
 31
0
  0
LINE
  8
LAYER1
  6
CONTINUOUS
 62
     7
 10
9.7361
 20
4.9978
 30
0
 11
9.8194
 21
5.0812
 31
0
  0
LINE
  8
LAYER1
  6
CONTINUOUS
 62
     7
 10
9.6111
 20
4.9978
 30
0
 11
9.6944
 21
5.0812
 31
0
  0
LINE
  8
LAYER1
  6
CONTINUOUS
 62
     7
 10
9.4722
 20
4.9978
 30
0
 11
9.5556
 21
5.0812
 31
0
  0
LINE
  8
LAYER1
  6
CONTINUOUS
 62
     7
 10
9.3472
 20
4.9978
 30
0
 11
9.4306
 21
5.0812
 31
0
  0
LINE
  8
LAYER1
  6
CONTINUOUS
 62
     7
 10
9.2083
 20
4.9978
 30
0
 11
9.2917
 21
5.0812
 31
0
  0
LINE
  8
LAYER1
  6
CONTINUOUS
 62
     7
 10
9.0694
 20
4.9978
 30
0
 11
9.1528
 21
5.0812
 31
0
  0
LINE
  8
LAYER1
  6
CONTINUOUS
 62
     7
 10
13.7639
 20
4.9978
 30
0
 11
13.8472
 21
5.0812
 31
0
  0
LINE
  8
LAYER1
  6
CONTINUOUS
 62
     7
 10
13.6389
 20
4.9978
 30
0
 11
13.7222
 21
5.0812
 31
0
  0
LINE
  8
LAYER1
  6
CONTINUOUS
 62
     7
 10
13.5
 20
4.9978
 30
0
 11
13.5833
 21
5.0812
 31
0
  0
LINE
  8
LAYER1
  6
CONTINUOUS
 62
     7
 10
13.375
 20
4.9978
 30
0
 11
13.4583
 21
5.0812
 31
0
  0
LINE
  8
LAYER1
  6
CONTINUOUS
 62
     7
 10
13.2361
 20
4.9978
 30
0
 11
13.3194
 21
5.0812
 31
0
  0
LINE
  8
LAYER1
  6
CONTINUOUS
 62
     7
 10
13.0972
 20
4.9978
 30
0
 11
13.1806
 21
5.0812
 31
0
  0
LINE
  8
LAYER1
  6
CONTINUOUS
 62
     7
 10
12.9722
 20
4.9978
 30
0
 11
13.0556
 21
5.0812
 31
0
  0
LINE
  8
LAYER1
  6
CONTINUOUS
 62
     7
 10
12.8333
 20
4.9978
 30
0
 11
12.9167
 21
5.0812
 31
0
  0
LINE
  8
LAYER1
  6
CONTINUOUS
 62
     7
 10
12.7083
 20
4.9978
 30
0
 11
12.7917
 21
5.0812
 31
0
  0
LINE
  8
LAYER1
  6
CONTINUOUS
 62
     7
 10
12.5694
 20
4.9978
 30
0
 11
12.6528
 21
5.0812
 31
0
  0
LINE
  8
LAYER1
  6
CONTINUOUS
 62
     7
 10
12.4444
 20
4.9978
 30
0
 11
12.5278
 21
5.0812
 31
0
  0
LINE
  8
LAYER1
  6
CONTINUOUS
 62
     7
 10
12.3056
 20
4.9978
 30
0
 11
12.3889
 21
5.0812
 31
0
  0
LINE
  8
LAYER1
  6
CONTINUOUS
 62
     7
 10
12.1806
 20
4.9978
 30
0
 11
12.2639
 21
5.0812
 31
0
  0
LINE
  8
LAYER1
  6
CONTINUOUS
 62
     7
 10
12.0417
 20
4.9978
 30
0
 11
12.125
 21
5.0812
 31
0
  0
LINE
  8
LAYER1
  6
CONTINUOUS
 62
     7
 10
11.9028
 20
4.9978
 30
0
 11
11.9861
 21
5.0812
 31
0
  0
LINE
  8
LAYER1
  6
CONTINUOUS
 62
     7
 10
11.7778
 20
4.9978
 30
0
 11
11.8611
 21
5.0812
 31
0
  0
LINE
  8
LAYER1
  6
CONTINUOUS
 62
     7
 10
11.6389
 20
4.9978
 30
0
 11
11.7222
 21
5.0812
 31
0
  0
LINE
  8
LAYER1
  6
CONTINUOUS
 62
     7
 10
11.5139
 20
4.9978
 30
0
 11
11.5972
 21
5.0812
 31
0
  0
LINE
  8
LAYER1
  6
CONTINUOUS
 62
     7
 10
11.375
 20
4.9978
 30
0
 11
11.4583
 21
5.0812
 31
0
  0
LINE
  8
LAYER1
  6
CONTINUOUS
 62
     7
 10
11.25
 20
4.9978
 30
0
 11
11.3333
 21
5.0812
 31
0
  0
LINE
  8
LAYER1
  6
CONTINUOUS
 62
     7
 10
11.1111
 20
4.9978
 30
0
 11
11.1944
 21
5.0812
 31
0
  0
LINE
  8
LAYER1
  6
CONTINUOUS
 62
     7
 10
10.9861
 20
4.9978
 30
0
 11
11.0694
 21
5.0812
 31
0
  0
LINE
  8
LAYER1
  6
CONTINUOUS
 62
     7
 10
10.8472
 20
4.9978
 30
0
 11
10.9306
 21
5.0812
 31
0
  0
LINE
  8
LAYER1
  6
CONTINUOUS
 62
     7
 10
10.7083
 20
4.9978
 30
0
 11
10.7917
 21
5.0812
 31
0
  0
LINE
  8
LAYER1
  6
CONTINUOUS
 62
     7
 10
10.5833
 20
4.9978
 30
0
 11
10.6667
 21
5.0812
 31
0
  0
LINE
  8
LAYER1
  6
CONTINUOUS
 62
     7
 10
10.4444
 20
4.9978
 30
0
 11
10.5278
 21
5.0812
 31
0
  0
LINE
  8
LAYER1
  6
CONTINUOUS
 62
     7
 10
10.3194
 20
4.9978
 30
0
 11
10.4028
 21
5.0812
 31
0
  0
LINE
  8
LAYER1
  6
CONTINUOUS
 62
     7
 10
10.1806
 20
4.9978
 30
0
 11
10.2639
 21
5.0812
 31
0
  0
LINE
  8
LAYER1
  6
CONTINUOUS
 62
     7
 10
10.0556
 20
4.9978
 30
0
 11
10.1389
 21
5.0812
 31
0
  0
LINE
  8
LAYER1
  6
CONTINUOUS
 62
     7
 10
9.9167
 20
4.9978
 30
0
 11
10
 21
5.0812
 31
0
  0
LINE
  8
LAYER1
  6
CONTINUOUS
 62
     7
 10
9.7778
 20
4.9978
 30
0
 11
9.8611
 21
5.0812
 31
0
  0
LINE
  8
LAYER1
  6
CONTINUOUS
 62
     7
 10
9.6528
 20
4.9978
 30
0
 11
9.7361
 21
5.0812
 31
0
  0
LINE
  8
LAYER1
  6
CONTINUOUS
 62
     7
 10
9.5139
 20
4.9978
 30
0
 11
9.5972
 21
5.0812
 31
0
  0
LINE
  8
LAYER1
  6
CONTINUOUS
 62
     7
 10
9.3889
 20
4.9978
 30
0
 11
9.4722
 21
5.0812
 31
0
  0
LINE
  8
LAYER1
  6
CONTINUOUS
 62
     7
 10
9.25
 20
4.9978
 30
0
 11
9.3333
 21
5.0812
 31
0
  0
LINE
  8
LAYER1
  6
CONTINUOUS
 62
     7
 10
9.125
 20
4.9978
 30
0
 11
9.2083
 21
5.0812
 31
0
  0
LINE
  8
LAYER1
  6
CONTINUOUS
 62
     7
 10
9.0556
 20
4.8867
 30
0
 11
9.0833
 21
4.9145
 31
0
  0
LINE
  8
LAYER1
  6
CONTINUOUS
 62
     7
 10
9.0556
 20
4.8312
 30
0
 11
9.125
 21
4.9145
 31
0
  0
LINE
  8
LAYER1
  6
CONTINUOUS
 62
     7
 10
9.0556
 20
4.9145
 30
0
 11
9.0556
 21
4.8312
 31
0
  0
LINE
  8
LAYER1
  6
CONTINUOUS
 62
     7
 10
9.0556
 20
5.0812
 30
0
 11
9.0556
 21
4.9978
 31
0
  0
LINE
  8
LAYER1
  6
CONTINUOUS
 62
     7
 10
9.0556
 20
5.0812
 30
0
 11
13.8611
 21
5.0812
 31
0
  0
LINE
  8
LAYER1
  6
CONTINUOUS
 62
     7
 10
9.0556
 20
4.8312
 30
0
 11
13.8611
 21
4.8312
 31
0
  0
LINE
  8
LAYER1
  6
CONTINUOUS
 62
     7
 10
13.8194
 20
4.8312
 30
0
 11
13.8611
 21
4.8589
 31
0
  0
LINE
  8
LAYER1
  6
CONTINUOUS
 62
     7
 10
13.7778
 20
4.8312
 30
0
 11
13.8611
 21
4.9006
 31
0
  0
LINE
  8
LAYER1
  6
CONTINUOUS
 62
     7
 10
13.8611
 20
5.0812
 30
0
 11
13.8611
 21
4.9978
 31
0
  0
LINE
  8
LAYER1
  6
CONTINUOUS
 62
     7
 10
13.8611
 20
4.8312
 30
0
 11
13.8611
 21
4.9145
 31
0
  0
LINE
  8
LAYER1
  6
CONTINUOUS
 62
     7
 10
8.8194
 20
4.9978
 30
0
 11
14.1667
 21
4.9978
 31
0
  0
LINE
  8
LAYER1
  6
CONTINUOUS
 62
     7
 10
8.8194
 20
4.9145
 30
0
 11
14.1667
 21
4.9145
 31
0
  0
LINE
  8
LAYER1
  6
CONTINUOUS
 62
     7
 10
14.1667
 20
4.97
 30
0
 11
14.1389
 21
4.9978
 31
0
  0
ENDBLK
  8
LAYER1
  0
BLOCK
  8
LAYER1
  2
Group56
 70
     0
 10
0
 20
0
 30
0
  0
POLYLINE
  8
LAYER1
  6
CONTINUOUS
 62
     7
 66
     1
 70
     0
 40
0.0039
 41
0.0039
  0
VERTEX
  8
LAYER1
 10
10.7778
 20
5.0812
 30
0
 70
     0
  0
VERTEX
  8
LAYER1
 10
10.8611
 20
4.9978
 30
0
 70
     0
  0
VERTEX
  8
LAYER1
 10
10.8611
 20
4.8312
 30
0
 70
     0
  0
VERTEX
  8
LAYER1
 10
10.9861
 20
4.8312
 30
0
 70
     0
  0
VERTEX
  8
LAYER1
 10
10.9861
 20
4.9978
 30
0
 70
     0
  0
VERTEX
  8
LAYER1
 10
11.0694
 20
5.0812
 30
0
 70
     0
  0
VERTEX
  8
LAYER1
 10
10.7778
 20
5.0812
 30
0
 70
     0
  0
SEQEND
  0
ENDBLK
  8
LAYER1
  0
BLOCK
  8
LAYER1
  2
Group57
 70
     0
 10
0
 20
0
 30
0
  0
LINE
  8
LAYER1
  6
CONTINUOUS
 62
     7
 10
10.8611
 20
4.9978
 30
0
 11
10.9861
 21
4.9978
 31
0
  0
POLYLINE
  8
LAYER1
  6
CONTINUOUS
 62
     7
 66
     1
 70
     0
 40
0.0039
 41
0.0039
  0
VERTEX
  8
LAYER1
 10
12.0278
 20
4.8312
 30
0
 70
     0
  0
VERTEX
  8
LAYER1
 10
12.1111
 20
4.9145
 30
0
 70
     0
  0
VERTEX
  8
LAYER1
 10
12.1111
 20
5.0812
 30
0
 70
     0
  0
VERTEX
  8
LAYER1
 10
12.2361
 20
5.0812
 30
0
 70
     0
  0
VERTEX
  8
LAYER1
 10
12.2361
 20
4.9145
 30
0
 70
     0
  0
VERTEX
  8
LAYER1
 10
12.3194
 20
4.8312
 30
0
 70
     0
  0
VERTEX
  8
LAYER1
 10
12.0278
 20
4.8312
 30
0
 70
     0
  0
SEQEND
  0
ENDBLK
  8
LAYER1
  0
BLOCK
  8
LAYER1
  2
Group58
 70
     0
 10
0
 20
0
 30
0
  0
LINE
  8
LAYER1
  6
CONTINUOUS
 62
     7
 10
12.1111
 20
4.9145
 30
0
 11
12.2361
 21
4.9145
 31
0
  0
POLYLINE
  8
LAYER1
  6
CONTINUOUS
 62
     7
 66
     1
 70
     0
 40
0.0039
 41
0.0039
  0
VERTEX
  8
LAYER1
 10
13.5694
 20
4.8312
 30
0
 70
     0
  0
VERTEX
  8
LAYER1
 10
13.4861
 20
4.9145
 30
0
 70
     0
  0
VERTEX
  8
LAYER1
 10
13.4861
 20
4.9978
 30
0
 70
     0
  0
VERTEX
  8
LAYER1
 10
13.5694
 20
5.0812
 30
0
 70
     0
  0
VERTEX
  8
LAYER1
 10
13.2778
 20
5.0812
 30
0
 70
     0
  0
VERTEX
  8
LAYER1
 10
13.3611
 20
4.9978
 30
0
 70
     0
  0
VERTEX
  8
LAYER1
 10
13.3611
 20
4.9145
 30
0
 70
     0
  0
VERTEX
  8
LAYER1
 10
13.2778
 20
4.8312
 30
0
 70
     0
  0
VERTEX
  8
LAYER1
 10
13.5694
 20
4.8312
 30
0
 70
     0
  0
SEQEND
  0
LINE
  8
LAYER1
  6
CONTINUOUS
 62
     7
 10
13.3611
 20
4.9145
 30
0
 11
13.4861
 21
4.9145
 31
0
  0
ENDBLK
  8
LAYER1
  0
BLOCK
  8
LAYER1
  2
Group59
 70
     0
 10
0
 20
0
 30
0
  0
LINE
  8
LAYER1
  6
CONTINUOUS
 62
     7
 10
13.3611
 20
4.9978
 30
0
 11
13.4861
 21
4.9978
 31
0
  0
LINE
  8
LAYER1
  6
CONTINUOUS
 62
     7
 10
8.6111
 20
10.7617
 30
0
 11
13.9306
 21
10.7617
 31
0
  0
TEXT
  8
LAYER1
 62
     7
 10
8.6385
 20
10.5314
 30
0
 40
0.125
  1
Riveted Joint Symbols (Shop Riveted & Field Riveted)
 50
0
999
Geneva
  0
ENDBLK
  8
LAYER1
  0
BLOCK
  8
LAYER1
  2
Group60
 70
     0
 10
0
 20
0
 30
0
  0
TEXT
  8
LAYER1
 62
     7
 10
2.5968
 20
0.0314
 30
0
 40
0.1389
  1
- 4-220 -
 50
0
999
Geneva
  0
TEXT
  8
LAYER1
 62
     7
 10
10.9579
 20
0.0314
 30
0
 40
0.1389
  1
- 4-221 -
 50
0
999
Geneva
  0
INSERT
  8
LAYER1
  2
Group1
 10
0
 20
0
 30
0
  0
INSERT
  8
LAYER1
  2
Group2
 10
0
 20
0
 30
0
  0
LINE
  8
LAYER1
  6
CONTINUOUS
 62
     7
 10
0.2361
 20
10.47
 30
0
 11
5.5694
 21
10.47
 31
0
  0
POLYLINE
  8
LAYER1
 66
     1
 62
     7
 70
     1
 40
0.0463
 41
0.0463
  0
VERTEX
  8
LAYER1
 10
9.6435
 20
5.521
 30
0
 42
1
 70
     0
  0
VERTEX
  8
LAYER1
 10
9.6898
 20
5.4747
 30
0
 42
1
 70
     0
  0
SEQEND
  0
CIRCLE
  8
LAYER1
 10
9.6667
 20
5.4978
 30
0
 40
0.0694
  0
TEXT
  8
LAYER1
 62
     7
 10
0.7079
 20
8.2536
 30
0
 40
0.0833
  1
Shp.2head
 50
0
999
Geneva
  0
TEXT
  8
LAYER1
 62
     7
 10
0.5551
 20
8.0869
 30
0
 40
0.0833
  1
Two Full Heads
 50
0
999
Geneva
  0
TEXT
  8
LAYER1
 62
     7
 10
1.8885
 20
8.2536
 30
0
 40
0.0833
  1
Shp.C&C.NS
 50
0
999
Geneva
  0
TEXT
  8
LAYER1
 62
     7
 10
1.8051
 20
8.0869
 30
0
 40
0.0833
  1
Countersunk &
 50
0
999
Geneva
  0
TEXT
  8
LAYER1
 62
     7
 10
2.6595
 20
8.0869
 30
0
 40
0.0833
  1
 
 50
0
999
Geneva
  0
TEXT
  8
LAYER1
 62
     7
 10
1.694
 20
7.9202
 30
0
 40
0.0833
  1
Chipped-Near Side
 50
0
999
Geneva
  0
TEXT
  8
LAYER1
 62
     7
 10
3.1524
 20
8.2536
 30
0
 40
0.0833
  1
Shp.C&C.FS
 50
0
999
Geneva
  0
TEXT
  8
LAYER1
 62
     7
 10
3.0551
 20
8.0869
 30
0
 40
0.0833
  1
Countersunk &
 50
0
999
Geneva
  0
TEXT
  8
LAYER1
 62
     7
 10
3.9095
 20
8.0869
 30
0
 40
0.0833
  1
 
 50
0
999
Geneva
  0
TEXT
  8
LAYER1
 62
     7
 10
2.9857
 20
7.9202
 30
0
 40
0.0833
  1
Chipped-Far Side
 50
0
999
Geneva
  0
TEXT
  8
LAYER1
 62
     7
 10
4.3885
 20
8.2536
 30
0
 40
0.0833
  1
Shp.C&C.BS
 50
0
999
Geneva
  0
TEXT
  8
LAYER1
 62
     7
 10
4.319
 20
8.0869
 30
0
 40
0.0833
  1
Countersunk &
 50
0
999
Geneva
  0
TEXT
  8
LAYER1
 62
     7
 10
5.1734
 20
8.0869
 30
0
 40
0.0833
  1
 
 50
0
999
Geneva
  0
TEXT
  8
LAYER1
 62
     7
 10
4.1801
 20
7.9202
 30
0
 40
0.0833
  1
Chipped-Both Sides
 50
0
999
Geneva
  0
TEXT
  8
LAYER1
 62
     7
 10
9.7635
 20
7.4064
 30
0
 40
0.0833
  1
Shp.Flt3/8.NS
 50
0
999
Geneva
  0
TEXT
  8
LAYER1
 62
     7
 10
9.6524
 20
7.2397
 30
0
 40
0.0833
  1
Flattened to 3/8"
 50
0
999
Geneva
  0
TEXT
  8
LAYER1
 62
     7
 10
10.7158
 20
7.2397
 30
0
 40
0.0833
  1
 
 50
0
999
Geneva
  0
TEXT
  8
LAYER1
 62
     7
 10
9.9024
 20
7.073
 30
0
 40
0.0833
  1
Near Side
 50
0
999
Geneva
  0
TEXT
  8
LAYER1
 62
     7
 10
11.0135
 20
7.4064
 30
0
 40
0.0833
  1
Shp.Flt3/8.FS
 50
0
999
Geneva
  0
TEXT
  8
LAYER1
 62
     7
 10
10.9024
 20
7.2397
 30
0
 40
0.0833
  1
Flattened to 3/8"
 50
0
999
Geneva
  0
TEXT
  8
LAYER1
 62
     7
 10
11.9658
 20
7.2397
 30
0
 40
0.0833
  1
 
 50
0
999
Geneva
  0
TEXT
  8
LAYER1
 62
     7
 10
11.194
 20
7.073
 30
0
 40
0.0833
  1
Far Side
 50
0
999
Geneva
  0
TEXT
  8
LAYER1
 62
     7
 10
12.2635
 20
7.4064
 30
0
 40
0.0833
  1
Shp.Flt3/8.BS
 50
0
999
Geneva
  0
TEXT
  8
LAYER1
 62
     7
 10
12.1524
 20
7.2397
 30
0
 40
0.0833
  1
Flattened to 3/8"
 50
0
999
Geneva
  0
TEXT
  8
LAYER1
 62
     7
 10
13.2158
 20
7.2397
 30
0
 40
0.0833
  1
 
 50
0
999
Geneva
  0
TEXT
  8
LAYER1
 62
     7
 10
12.3746
 20
7.073
 30
0
 40
0.0833
  1
Both Sides
 50
0
999
Geneva
  0
INSERT
  8
LAYER1
  2
Group3
 10
0
 20
0
 30
0
  0
INSERT
  8
LAYER1
  2
Group4
 10
0
 20
0
 30
0
  0
INSERT
  8
LAYER1
  2
Group5
 10
0
 20
0
 30
0
  0
TEXT
  8
LAYER1
 62
     7
 10
9.3885
 20
4.5036
 30
0
 40
0.0833
  1
Fld.2head
 50
0
999
Geneva
  0
TEXT
  8
LAYER1
 62
     7
 10
9.2079
 20
4.3369
 30
0
 40
0.0833
  1
Two Full Heads
 50
0
999
Geneva
  0
TEXT
  8
LAYER1
 62
     7
 10
10.569
 20
4.5036
 30
0
 40
0.0833
  1
Fld.C&C.NS
 50
0
999
Geneva
  0
TEXT
  8
LAYER1
 62
     7
 10
10.5412
 20
4.3369
 30
0
 40
0.0833
  1
Countersunk
 50
0
999
Geneva
  0
TEXT
  8
LAYER1
 62
     7
 10
10.6246
 20
4.1702
 30
0
 40
0.0833
  1
Near Side
 50
0
999
Geneva
  0
TEXT
  8
LAYER1
 62
     7
 10
11.8329
 20
4.5036
 30
0
 40
0.0833
  1
Fld.C&C.FS
 50
0
999
Geneva
  0
TEXT
  8
LAYER1
 62
     7
 10
11.7912
 20
4.3369
 30
0
 40
0.0833
  1
Countersunk
 50
0
999
Geneva
  0
TEXT
  8
LAYER1
 62
     7
 10
11.9162
 20
4.1702
 30
0
 40
0.0833
  1
Far Side
 50
0
999
Geneva
  0
TEXT
  8
LAYER1
 62
     7
 10
13.069
 20
4.5036
 30
0
 40
0.0833
  1
Fld.C&C.BS
 50
0
999
Geneva
  0
TEXT
  8
LAYER1
 62
     7
 10
13.0412
 20
4.3369
 30
0
 40
0.0833
  1
Countersunk
 50
0
999
Geneva
  0
TEXT
  8
LAYER1
 62
     7
 10
13.0968
 20
4.1702
 30
0
 40
0.0833
  1
Both Sides
 50
0
999
Geneva
  0
INSERT
  8
LAYER1
  2
Group7
 10
0
 20
0
 30
0
  0
INSERT
  8
LAYER1
  2
Group9
 10
0
 20
0
 30
0
  0
INSERT
  8
LAYER1
  2
Group11
 10
0
 20
0
 30
0
  0
CIRCLE
  8
LAYER1
 10
1.0208
 20
9.4214
 30
0
 40
0.1319
  0
INSERT
  8
LAYER1
  2
Group14
 10
0
 20
0
 30
0
  0
INSERT
  8
LAYER1
  2
Group15
 10
0
 20
0
 30
0
  0
INSERT
  8
LAYER1
  2
Group18
 10
0
 20
0
 30
0
  0
INSERT
  8
LAYER1
  2
Group19
 10
0
 20
0
 30
0
  0
INSERT
  8
LAYER1
  2
Group22
 10
0
 20
0
 30
0
  0
INSERT
  8
LAYER1
  2
Group23
 10
0
 20
0
 30
0
  0
INSERT
  8
LAYER1
  2
Group24
 10
0
 20
0
 30
0
  0
INSERT
  8
LAYER1
  2
Group25
 10
0
 20
0
 30
0
  0
TEXT
  8
LAYER1
 62
     7
 10
1.3468
 20
5.0869
 30
0
 40
0.0833
  1
Shp.CS1/8.NS
 50
0
999
Geneva
  0
TEXT
  8
LAYER1
 62
     7
 10
1.2912
 20
4.9202
 30
0
 40
0.0833
  1
Countersunk not
 50
0
999
Geneva
  0
TEXT
  8
LAYER1
 62
     7
 10
2.294
 20
4.9202
 30
0
 40
0.0833
  1
 
 50
0
999
Geneva
  0
TEXT
  8
LAYER1
 62
     7
 10
1.4579
 20
4.7536
 30
0
 40
0.0833
  1
over 1/8H
 50
0
999
Geneva
  0
TEXT
  8
LAYER1
 62
     7
 10
1.4996
 20
4.5869
 30
0
 40
0.0833
  1
Near Side
 50
0
999
Geneva
  0
INSERT
  8
LAYER1
  2
Group26
 10
0
 20
0
 30
0
  0
TEXT
  8
LAYER1
 62
     7
 10
2.6107
 20
5.0869
 30
0
 40
0.0833
  1
Shp.CS1/8.FS
 50
0
999
Geneva
  0
TEXT
  8
LAYER1
 62
     7
 10
2.5412
 20
4.9202
 30
0
 40
0.0833
  1
Countersunk not
 50
0
999
Geneva
  0
TEXT
  8
LAYER1
 62
     7
 10
3.544
 20
4.9202
 30
0
 40
0.0833
  1
 
 50
0
999
Geneva
  0
TEXT
  8
LAYER1
 62
     7
 10
2.7079
 20
4.7536
 30
0
 40
0.0833
  1
over 1/8H
 50
0
999
Geneva
  0
TEXT
  8
LAYER1
 62
     7
 10
2.7912
 20
4.5869
 30
0
 40
0.0833
  1
Far Side
 50
0
999
Geneva
  0
TEXT
  8
LAYER1
 62
     7
 10
3.8468
 20
5.0869
 30
0
 40
0.0833
  1
Shp.CS1/8.BS
 50
0
999
Geneva
  0
TEXT
  8
LAYER1
 62
     7
 10
3.7912
 20
4.9202
 30
0
 40
0.0833
  1
Countersunk not
 50
0
999
Geneva
  0
TEXT
  8
LAYER1
 62
     7
 10
4.794
 20
4.9202
 30
0
 40
0.0833
  1
 
 50
0
999
Geneva
  0
TEXT
  8
LAYER1
 62
     7
 10
3.9579
 20
4.7536
 30
0
 40
0.0833
  1
over 1/8H
 50
0
999
Geneva
  0
TEXT
  8
LAYER1
 62
     7
 10
3.9718
 20
4.5869
 30
0
 40
0.0833
  1
Both Sides
 50
0
999
Geneva
  0
INSERT
  8
LAYER1
  2
Group30
 10
0
 20
0
 30
0
  0
INSERT
  8
LAYER1
  2
Group31
 10
0
 20
0
 30
0
  0
INSERT
  8
LAYER1
  2
Group36
 10
0
 20
0
 30
0
  0
INSERT
  8
LAYER1
  2
Group37
 10
0
 20
0
 30
0
  0
INSERT
  8
LAYER1
  2
Group39
 10
0
 20
0
 30
0
  0
INSERT
  8
LAYER1
  2
Group40
 10
0
 20
0
 30
0
  0
TEXT
  8
LAYER1
 62
     7
 10
1.3329
 20
1.6564
 30
0
 40
0.0833
  1
Shp.Flt1/4.NS
 50
0
999
Geneva
  0
TEXT
  8
LAYER1
 62
     7
 10
1.2218
 20
1.5036
 30
0
 40
0.0833
  1
Flattened to 1/4"
 50
0
999
Geneva
  0
TEXT
  8
LAYER1
 62
     7
 10
2.2853
 20
1.5036
 30
0
 40
0.0833
  1
 
 50
0
999
Geneva
  0
TEXT
  8
LAYER1
 62
     7
 10
1.4718
 20
1.3369
 30
0
 40
0.0833
  1
Near Side
 50
0
999
Geneva
  0
TEXT
  8
LAYER1
 62
     7
 10
2.5829
 20
1.6564
 30
0
 40
0.0833
  1
Shp.Flt1/4.FS
 50
0
999
Geneva
  0
TEXT
  8
LAYER1
 62
     7
 10
2.4718
 20
1.5036
 30
0
 40
0.0833
  1
Flattened to 1/4"
 50
0
999
Geneva
  0
TEXT
  8
LAYER1
 62
     7
 10
3.5353
 20
1.5036
 30
0
 40
0.0833
  1
 
 50
0
999
Geneva
  0
TEXT
  8
LAYER1
 62
     7
 10
2.7635
 20
1.3369
 30
0
 40
0.0833
  1
Far Side
 50
0
999
Geneva
  0
TEXT
  8
LAYER1
 62
     7
 10
3.8329
 20
1.6564
 30
0
 40
0.0833
  1
Shp.Flt1/4.BS
 50
0
999
Geneva
  0
TEXT
  8
LAYER1
 62
     7
 10
3.7218
 20
1.5036
 30
0
 40
0.0833
  1
Flattened to 1/4"
 50
0
999
Geneva
  0
TEXT
  8
LAYER1
 62
     7
 10
4.7853
 20
1.5036
 30
0
 40
0.0833
  1
 
 50
0
999
Geneva
  0
TEXT
  8
LAYER1
 62
     7
 10
3.944
 20
1.3369
 30
0
 40
0.0833
  1
Both Sides
 50
0
999
Geneva
  0
INSERT
  8
LAYER1
  2
Group41
 10
0
 20
0
 30
0
  0
INSERT
  8
LAYER1
  2
Group42
 10
0
 20
0
 30
0
  0
INSERT
  8
LAYER1
  2
Group43
 10
0
 20
0
 30
0
  0
INSERT
  8
LAYER1
  2
Group45
 10
0
 20
0
 30
0
  0
INSERT
  8
LAYER1
  2
Group47
 10
0
 20
0
 30
0
  0
INSERT
  8
LAYER1
  2
Group48
 10
0
 20
0
 30
0
  0
INSERT
  8
LAYER1
  2
Group49
 10
0
 20
0
 30
0
  0
INSERT
  8
LAYER1
  2
Group51
 10
0
 20
0
 30
0
  0
INSERT
  8
LAYER1
  2
Group53
 10
0
 20
0
 30
0
  0
INSERT
  8
LAYER1
  2
Group54
 10
0
 20
0
 30
0
  0
INSERT
  8
LAYER1
  2
Group55
 10
0
 20
0
 30
0
  0
LINE
  8
LAYER1
  6
CONTINUOUS
 62
     7
 10
14.1667
 20
4.9978
 30
0
 11
14.1667
 21
4.9145
 31
0
  0
SOLID
  8
LAYER1
 62
     7
 10
9.7361
 20
5.0812
 30
0
 11
9.6111
 21
5.0812
 31
0
 12
9.7361
 22
4.8312
 32
0
 13
9.6111
 23
4.8312
 33
0
  0
INSERT
  8
LAYER1
  2
Group56
 10
0
 20
0
 30
0
  0
INSERT
  8
LAYER1
  2
Group57
 10
0
 20
0
 30
0
  0
INSERT
  8
LAYER1
  2
Group58
 10
0
 20
0
 30
0
  0
INSERT
  8
LAYER1
  2
Group59
 10
0
 20
0
 30
0
  0
TEXT
  8
LAYER1
 62
     7
 10
0.2079
 20
0.0452
 30
0
 40
0.0833
  1
Scale 1:1 Printed at 70%
 50
0
999
Geneva
  0
TEXT
  8
LAYER1
 62
     7
 10
4.1801
 20
0.198
 30
0
 40
0.0833
  1
©1989,1990,1991,1992
 50
0
999
Geneva
  0
TEXT
  8
LAYER1
 62
     7
 10
4.0551
 20
0.0314
 30
0
 40
0.0833
  1
Advanced System Design, Inc.
 50
0
999
Geneva
  0
TEXT
  8
LAYER1
 62
     7
 10
8.6385
 20
0.0452
 30
0
 40
0.0833
  1
Scale 1:1 Printed at 70%
 50
0
999
Geneva
  0
TEXT
  8
LAYER1
 62
     7
 10
12.6385
 20
0.198
 30
0
 40
0.0833
  1
©1989,1990,1991,1992
 50
0
999
Geneva
  0
TEXT
  8
LAYER1
 62
     7
 10
12.5135
 20
0.0314
 30
0
 40
0.0833
  1
Advanced System Design, Inc.
 50
0
999
Geneva
  0
TEXT
  8
LAYER1
 62
     7
 10
0.8051
 20
9.7397
 30
0
 40
0.0833
  1
46000
 50
0
999
Geneva
  0
TEXT
  8
LAYER1
 62
     7
 10
0.8051
 20
7.9202
 30
0
 40
0.0833
  1
46001
 50
0
999
Geneva
  0
TEXT
  8
LAYER1
 62
     7
 10
2.069
 20
9.7397
 30
0
 40
0.0833
  1
46002
 50
0
999
Geneva
  0
TEXT
  8
LAYER1
 62
     7
 10
1.9996
 20
7.7397
 30
0
 40
0.0833
  1
46003
 50
0
999
Geneva
  0
TEXT
  8
LAYER1
 62
     7
 10
3.3051
 20
9.7397
 30
0
 40
0.0833
  1
46004
 50
0
999
Geneva
  0
TEXT
  8
LAYER1
 62
     7
 10
3.3051
 20
7.7397
 30
0
 40
0.0833
  1
46005
 50
0
999
Geneva
  0
TEXT
  8
LAYER1
 62
     7
 10
4.4996
 20
9.7397
 30
0
 40
0.0833
  1
46006
 50
0
999
Geneva
  0
TEXT
  8
LAYER1
 62
     7
 10
4.4996
 20
7.7397
 30
0
 40
0.0833
  1
46007
 50
0
999
Geneva
  0
TEXT
  8
LAYER1
 62
     7
 10
1.5551
 20
6.5452
 30
0
 40
0.0833
  1
46008
 50
0
999
Geneva
  0
TEXT
  8
LAYER1
 62
     7
 10
1.569
 20
4.4202
 30
0
 40
0.0833
  1
46009
 50
0
999
Geneva
  0
TEXT
  8
LAYER1
 62
     7
 10
2.7774
 20
6.5452
 30
0
 40
0.0833
  1
46010
 50
0
999
Geneva
  0
TEXT
  8
LAYER1
 62
     7
 10
2.7912
 20
4.4341
 30
0
 40
0.0833
  1
46011
 50
0
999
Geneva
  0
TEXT
  8
LAYER1
 62
     7
 10
4.0135
 20
6.5452
 30
0
 40
0.0833
  1
46012
 50
0
999
Geneva
  0
TEXT
  8
LAYER1
 62
     7
 10
4.0551
 20
4.4341
 30
0
 40
0.0833
  1
46013
 50
0
999
Geneva
  0
TEXT
  8
LAYER1
 62
     7
 10
1.5829
 20
3.2119
 30
0
 40
0.0833
  1
46014
 50
0
999
Geneva
  0
TEXT
  8
LAYER1
 62
     7
 10
1.5274
 20
1.1425
 30
0
 40
0.0833
  1
46015
 50
0
999
Geneva
  0
TEXT
  8
LAYER1
 62
     7
 10
2.8051
 20
3.2119
 30
0
 40
0.0833
  1
46016
 50
0
999
Geneva
  0
TEXT
  8
LAYER1
 62
     7
 10
2.8051
 20
1.1425
 30
0
 40
0.0833
  1
46017
 50
0
999
Geneva
  0
TEXT
  8
LAYER1
 62
     7
 10
4.0551
 20
3.2119
 30
0
 40
0.0833
  1
46018
 50
0
999
Geneva
  0
TEXT
  8
LAYER1
 62
     7
 10
4.0274
 20
1.1425
 30
0
 40
0.0833
  1
46019
 50
0
999
Geneva
  0
TEXT
  8
LAYER1
 62
     7
 10
9.9162
 20
8.9341
 30
0
 40
0.0833
  1
46020
 50
0
999
Geneva
  0
TEXT
  8
LAYER1
 62
     7
 10
9.9301
 20
6.8786
 30
0
 40
0.0833
  1
46021
 50
0
999
Geneva
  0
TEXT
  8
LAYER1
 62
     7
 10
11.1524
 20
8.9341
 30
0
 40
0.0833
  1
46022
 50
0
999
Geneva
  0
TEXT
  8
LAYER1
 62
     7
 10
11.2357
 20
6.8786
 30
0
 40
0.0833
  1
46023
 50
0
999
Geneva
  0
TEXT
  8
LAYER1
 62
     7
 10
12.4301
 20
8.9341
 30
0
 40
0.0833
  1
46024
 50
0
999
Geneva
  0
TEXT
  8
LAYER1
 62
     7
 10
12.4718
 20
6.8786
 30
0
 40
0.0833
  1
46025
 50
0
999
Geneva
  0
TEXT
  8
LAYER1
 62
     7
 10
9.4718
 20
5.7397
 30
0
 40
0.0833
  1
46026
 50
0
999
Geneva
  0
TEXT
  8
LAYER1
 62
     7
 10
9.4718
 20
4.1564
 30
0
 40
0.0833
  1
46027
 50
0
999
Geneva
  0
TEXT
  8
LAYER1
 62
     7
 10
10.7218
 20
5.7397
 30
0
 40
0.0833
  1
46028
 50
0
999
Geneva
  0
TEXT
  8
LAYER1
 62
     7
 10
10.7079
 20
3.9758
 30
0
 40
0.0833
  1
46029
 50
0
999
Geneva
  0
TEXT
  8
LAYER1
 62
     7
 10
11.9718
 20
5.7397
 30
0
 40
0.0833
  1
46030
 50
0
999
Geneva
  0
TEXT
  8
LAYER1
 62
     7
 10
11.9579
 20
3.9758
 30
0
 40
0.0833
  1
46031
 50
0
999
Geneva
  0
TEXT
  8
LAYER1
 62
     7
 10
13.2079
 20
5.7397
 30
0
 40
0.0833
  1
46032
 50
0
999
Geneva
  0
TEXT
  8
LAYER1
 62
     7
 10
13.1801
 20
3.9758
 30
0
 40
0.0833
  1
46033
 50
0
999
Geneva
  0
ENDBLK
  8
LAYER1
  0
ENDSEC
  0
SECTION
  2
ENTITIES
  0
INSERT
  8
LAYER1
  2
Group60
 10
0
 20
0
 30
0
  0
ENDSEC
  0
EOF
